Eminem - Lose Yourself Chords & Tabs

 

Lose Yourself Chords & Tabs

Eminem Chords & Tabs

Version: 7 Type: Tab 0 ratings
1 star 2 stars 3 stars 4 stars 5 stars
comments

Lose Yourself Tab

   
Emenem This Song Rocks 
I'm Pretty sure its rite
Enjoy!!

e -----------------------------------------------------------------
b -----------------------------------------------------------------
g -----------------------------------------------------------------
d 7-7-7-7-7-7-7-7-8-8-8-8-8-8-8-8-7-7-7-7-7-7-7-7-8-8-8-8-8-8-8-8-0
a 5-5-5-5-5-5-5-5-5-5-5-5-5-5-5-5-5-5-5-5-5-5-5-5-5-5-5-5-5-5-5-5-5
e -----------------------------------------------------------------

[ Tab from: http://www.guitartabs.cc/tabs/e/eminem/lose_yourself_tab_ver_7.html ]
e -----------------------------------------------------------------
b -----------------------------------------------------------------
g -----------------------------------------------------------------
d 7-7-7-7-7-7-7-7-8-8-8-8-8-8-8-8-7-7-7-7-7-7-7-7-8-8-8-8-8-8-8-8-0
a 5-5-5-5-5-5-5-5-5-5-5-5-5-5-5-5-5-5-5-5-5-5-5-5-5-5-5-5-5-5-5-5-5
e -----------------------------------------------------------------

This basicly the whole song! Easy, you figure out when to shift chords
Robert
Email me for any corrections: Hewittfam@mweb.co.za
Comments