Eminem - Lose Yourself Chords & Tabs

 

Lose Yourself Chords & Tabs

Eminem Chords & Tabs

Version: 5 Type: Tab 0 ratings
1 star 2 stars 3 stars 4 stars 5 stars
comments

Lose Yourself Tab

   
EMINEM
Loose Yourself
Tabbed by Vince a.k.a.
    ____                 __  __  __  __  _  ____      _  _
   / __ \ __  __ __     / / / / / / / / (_)/ _  \ /| / \/ \
  / ____// / / // /___ / /_/_/ / /_/_/ / // / / /  | \_/  /
 / /    / /_/ // / / // /\ \  / /\ \  / // /_/ /   | / \ /
/_/    /_____//_/ /_//_/  \_\/_/  \_\/_//_____/   _|_\_//__ 

standard tuning
low to high:E A D G B E

 .  =  palm mute

ok good god people 
i can not belive that NO ONE has gotten this tab right yet
its eeaaaaaaaaseyy
i tabbed this in like 10 min's but its right
i mean come on people give it a little more effort next time


 Intro
e|----------------------------------------------------| 
B|-------2-----------2-----3--3--3--------------3-3p0-|
G|-0--0--0--0--0--0--0--0--0--0--0--0--0--0--0--0-----|
D|----------------------------------------------------|   X3
A|----------------------------------------------------|
E|----------------------------------------------------|
   .  .     .  .  .     .  .  .     .  .  .  .
e|----------------------------------------------------| 
B|-------2-----------2-----3--3--3-----3p02p03p02-----|
G|-0--0--0--0--0--0--0--0--0--0--0--0--0--0--0--0-----|
D|----------------------------------------------------|
A|----------------------------------------------------|
E|----------------------------------------------------|
   .  .     .  .  .     .  .  .     .
[ Tab from: http://www.guitartabs.cc/tabs/e/eminem/lose_yourself_tab_ver_5.html ]
 Verse
e|----------------------------------------------------| 
B|-------2-----------2-----3--3--3--------------3-3p0-|
G|-0--0--0--0--0--0--0--0--0--0--0--0--0--0--0--0-----|
D|----------------------------------------------------|   X3
A|----------------------------------------------------|
E|----------------------------------------------------|
   .  .     .  .  .     .  .  .     .  .  .  .
e|----------------------------------------------------| 
B|-------2-----------2-----3--3--3-----3p02p03p02-----|
G|-0--0--0--0--0--0--0--0--0--0--0--0--0--0--0--0-----|
D|----------------------------------------------------|
A|----------------------------------------------------|
E|----------------------------------------------------|
   .  .     .  .  .     .  .  .     .
e|----------------------------------------------------| 
B|-------2-----------2-----3--3--3--------------3-3p0-|
G|-0--0--0--0--0--0--0--0--0--0--0--0--0--0--0--0-----|
D|----------------------------------------------------|   X3
A|----------------------------------------------------|
E|----------------------------------------------------|
   .  .     .  .  .     .  .  .     .  .  .  .
e|----------------------------------------------------| 
B|-------2-----------2-----3--3--3-----3p02p03p02-----|
G|-0--0--0--0--0--0--0--0--0--0--0--0--0--0--0--0-----|
D|----------------------------------------------------|
A|----------------------------------------------------|
E|----------------------------------------------------|
   .  .     .  .  .     .  .  .     .
 Chorus
e|----------------------------------------------------| 
B|-------2-----------2-----3--3--3--------------3-3p0-|
G|-0--0--0--0--0--0--0--0--0--0--0--0--0--0--0--0-----|
D|----------------------------------------------------|   X3
A|----------------------------------------------------|
E|----------------------------------------------------|
   .  .     .  .  .     .  .  .     .  .  .  .
e|----------------------------------------------------| 
B|-------2-----------2-----3--3--3-----3p02p03p02-----|
G|-0--0--0--0--0--0--0--0--0--0--0--0--0--0--0--0-----|
D|----------------------------------------------------|
A|----------------------------------------------------|
E|----------------------------------------------------|
   .  .     .  .  .     .  .  .     .

Then Repeat the Verse

Then play the Chorus again

Then Repeat Verse

Then play Chorus

Then play the intro as an outro till fade out (about 4 times)
Comments