Eminem - Lose Your Self Chords & Tabs

 

Lose Your Self Chords & Tabs

Eminem Chords & Tabs

Version: 1 Type: Tab 3 ratings
1 star 2 stars 3 stars 4 stars 5 stars
comments

Lose Your Self Tab

intro

e--5-1---5-3-0---3-5-1---5--8-5-3--5-1---5-3-0---3-5------------------
b------3-------1-------3---------------3-------1------3-0---3-0-------
g---------------------------------------------------------1-----31----
d---------------------------------------------------------------------
a---------------------------------------------------------------------


[ Tab from: http://www.guitartabs.cc/tabs/e/eminem/lose_your_self_tab.html ]
e---------------------------------------------------------------------------
b---------------------------------------------------------------------------
g----2-2-2-2-2-2-2-2-0-3-3-3-3-3-3-3-3-0-2-2-2-2-2-2-2-2-0-0-3-3-3-3-3-3-3-3
d--0-0-0-0-0-0-0-0-0---0-0-0-0-0-0-0-0---0-0-0-0-0-0-0-0-----0-0-0-0-0-0-0-0
a---------------------------------------------------------------------------
e---------------------------------------------------------------------------


e-------------------------------------------------------------------------
b-------------------------------------------------------------------------
g--0-2-2-2-2-2-2-2-2-0-0-3-3-3-3-3-3-3-3-0-2-2-2-2-2-2-2-2-0-0-3-3-3-3-3-3
d----0-0-0-0-0-0-0-0-----0-0-0-0-0-0-0-0---0-0-0-0-0-0-0-0-----0-0-0-0-0-0
a-------------------------------------------------------------------------
e-------------------------------------------------------------------------








from guitaretab.com
Comments