Eminem - Like Toy Soldiers Chords & Tabs

 

Like Toy Soldiers Chords & Tabs

Eminem Chords & Tabs

Version: 3 Type: Tab 0 ratings
1 star 2 stars 3 stars 4 stars 5 stars
comments

Like Toy Soldiers Tab

just play it through whole song.

play this through intro and chorus,sometimes playing in verses.listen to the song.
|------------------|
|------------------|
|------------------|
|-2-------------1--|
|---2-4-1-0-2-4----|
|------------------|

play this through verses.
|-4-2-0---0-------0---|
|-------4---4-2-4-----|
|---------------------|
|---------------------|
|---------------------|
|---------------------|
[ Tab from: http://www.guitartabs.cc/tabs/e/eminem/like_toy_soldiers_tab_ver_3.html ]



just play it through whole song.

play this through intro and chorus,sometimes playing in verses.listen to the song.
|------------------|
|------------------|
|------------------|
|-2-------------1--|
|---2-4-1-0-2-4----|
|------------------|

play this through verses.
|-4-2-0---0-------0---|
|-------4---4-2-4-----|
|---------------------|
|---------------------|
|---------------------|
|---------------------|
Comments