Eminem - Hailies Song Chords & Tabs

 

Hailies Song Chords & Tabs

Eminem Chords & Tabs

Version: 2 Type: Tab 0 ratings
1 star 2 stars 3 stars 4 stars 5 stars
comments

Hailies Song Tab

"Haile's Song"
from "The Eminem Show"
Tabbed by: Mistah Franco
It's kinda weird to hear him sing, but it's a cool ass song.
[ Tab from: http://www.guitartabs.cc/tabs/e/eminem/hailies_song_tab_ver_2.html ]
Intro:
1st time
----------------------------------------
----------------------------------------
-------7----7------------7h9-7-5-7-5-7-4
-7-9-10-10-9-10-9-9-9/10----------------
----------------------------------------
----------------------------------------
2nd time
------------------------------------------
------------------------------------------
-------7----7------------7h9-7-5-7-5-7-7/9
-7-9-10-10-9-10-9-9-9/10------------------
------------------------------------------
------------------------------------------
Chorus is the same as the intro, but on the 2nd time
(when he goes for the high pitched "..But then she comes back to me....eeee....eee") add 

----------------------------
----------------------------
-7h9-7-5-7-5-7-7/9-9/12-12/14
----------------------------
----------------------------
----------------------------
Well Dat's oll I have.  
Comments