Eminem - Cleaning Out My Closet Chords & Tabs

 

Cleaning Out My Closet Chords & Tabs

Eminem Chords & Tabs

Version: 6 Type: Tab 0 ratings
1 star 2 stars 3 stars 4 stars 5 stars
comments

Cleaning Out My Closet Tab

 * Eminem - Cleaning Out My Closet *
[ Tab from: http://www.guitartabs.cc/tabs/e/eminem/cleaning_out_my_closet_tab_ver_6.html ]
 E|---------------------------------|
 B|---------------------------------|
 G|---------------------------------|
 D|--------2-2--------------2-2-----|
 A|--0-2-3-----3-2----0-2-3-----3-2-|
 E|---------------------------------|

 E|---------------------------------|
 B|---------------------------------|
 G|---------------------1-2-4-1-2---|
 D|----------3-2--------------------|
 A|------2-3-----2------------------|
 E|--1-3-----------0-0--------------|      

sixstringed@hotmail.com
Comments