Eminem - Beautiful Solo Chords & Tabs

 

Eminem Chords & Tabs

Version: 3 Type: Tab 0 ratings
1 star 2 stars 3 stars 4 stars 5 stars
comments

Beautiful Solo Tab

EMINEM - BEAUTIFUL
STANDARD TUNING - EADGbe
SOLO/OUTRO
|-------------------------------------|   WARNING-IN THIS TAB, THE NUMBERS
|LEGEND:                              |   ARE NOT SPACED OUT ACCORDING TO
|h  HAMMER-ON                         |   TIME.
|p  PULL-OFF                          |
|s  SLIDE                             |
|b# BEND SO THAT IT SOUNDS LIKE THE # |
|*  LET RING                          |
|=====================================|

e|---13-15-15b16-15p13-13-----------13*---13-11----------------------|
b|13---------------------16-16p13-13-----------13-11b13--------------|
G|-----------------------------------------------------10------------|
D|-------------------------------------------------------------------|
A|-------------------------------------------------------------------|
E|-------------------------------------------------------------------|
[ Tab from: http://www.guitartabs.cc/tabs/e/eminem/beautiful_solo_tab_ver_3.html ]
e|------------------------------11b13r12_16s18-18b20-18b20-18b20-18b20r18-16*|
b|------------13-11-11p9h11p9--9---------------------------------------------|
G|10-10-10-8--10-------------10----------------------------------------------|
D|----------10---------------------------------------------------------------|
A|---------------------------------------------------------------------------|
E|---------------------------------------------------------------------------|
                 
e|-------------------------------------------------------------------|
b|13h16-16s18-18-18p16-----16p13--------13---------------------------|
G|--------------------17p15-----15p13h15--15-13----------------------|
D|---------------------------------------------15-15-15-15-----------|
A|--------------------------------------------------------15-13------|
E|-------------------------------------------------------------16-13-|

e|-------------------------------------------------------------------|
b|---------13-16b18-13-16b18-13-16b18-16b18-16b18-16b18-13-----------|
G|--------------------------------------------------------15-13------|
D|----13h15----------------------------------------------------15----|
A|--15---------------------------------------------------------------|
E|13-----------------------------------------------------------------|

e|-----------15----16----16--16---------------------------------16----------------|
b|-----------------------------16-16b18-16b18-16b18r16--16b18r16--16b18r16--16b18*|
G|--13-13--13----13----13-----------------------------17------------------17------|
D|15-----15----15----15-----------------------------------------------------------|
A|--------------------------------------------------------------------------------|
E|--------------------------------------------------------------------------------|

e|13-15-16-16-15-13-11s13*---------------------|-------|
b|----------------------------13p11h13-11p9h11-|-------|
G|---------------------------------------------|-music-|
D|---------------------------------------------|-fades-|
A|---------------------------------------------|-------|
E|---------------------------------------------|-------|

That was all I could tab by ear before the music faded too much. Not a 100% correct
tab, there were some major mistakes. However, this is my first tab, so mistakes can
be expected. Otherwise, enjoy the tab. ~DiYenAy~
Comments