Emiliana Torrini - Sunnyroad Chords & Tabs

 

Sunnyroad Chords & Tabs

Emiliana Torrini Chords & Tabs

Version: 1 Type: Tab

Sunnyroad Tab

 i looked for this tab for ages but eventually found it on some dodgy messageboard. is a 
song and sounds awesome when played with the right timing.
any problems- maxiboyjuventus@hotmail.com

Key
   ~~~


   ( ) - played occasionally


   ^
   |   - spread chord
   |


   h   - hammer on - e.g. "0h1" means play open string then hammer on the 1st fret


   The Motifs
   ~~~ ~~~~~~


   Intro / Chorus:

   E-------------------------------------------------------(0)------------|
   B----------10----8------5----5----------3-----5----2-------------------|
   G----------------------------------------------------------------------|
   D----------10----9------7----7----------3-----5----2-------------------|
   A-----0---------------------------------1-----3----0-------------------|
   E----------------------------------------------------------------0--3--|

   Verse:
[ Tab from: http://www.guitartabs.cc/tabs/e/emiliana_torrini/sunnyroad_tab.html ]
   E----------------0-----------------0-------------------0---------------0--------|
   B--------1---------1-------1---------1----------1--------1----------0h1---------|
   G--------0-----------------0--------------------0-------------------------------|
   D-------------2-----------------2----------3---------2--------------0h2---------|
   A---0---------------------------------------------------------3--------------2--|
   E---------------------3---------------------------------------------------------|

   Bridge:
                                                                              ^
   E----------------0--------------------0-------------------0---------0------|3--2--0----------|
   B-------1----------0---------0---------------------1----1-----------1------|1-------1--------|
   G-------0--------------------1-----1---------------2----------------2------|2----------2-----|
   D------------2----------2---------------------3----------------0-----------|0-------------0--|
   A--3-----------------------------------------------------------------------|-----------------|
   E--------------------------------------------------------------------------------------------|