Emf - They Are Here Chords & Tabs

 

They Are Here Chords & Tabs

Emf Chords & Tabs

Version: 1 Type: Tab 0 ratings
1 star 2 stars 3 stars 4 stars 5 stars
comments

They Are Here Tab

   
This is based on the live version from the All Night Rave bootleg CD.

Transcribed by Colin Hooper
Please bare in mind that this is my first attempt at making tab!
Any lyrics written in the tab should be used as a rough guide.
Play this awesome opening riff twice..
|-----------------------------------------------------------
|------------------------------------------9/10--8----------
|--------------------------------------------------10--7----
|--------7--5-------------7--5---------------------------8--
|--------------7/8-5------------7/8-5-----------------------
|--------------------6-5--------------6-5-------------------
|-------------------
|-------------------
|-------------------
|--7--5-------------
|--------7/8-5------
|--------------6-5-- 

Ian doesn't play any guitar in the first verse so just relax for awhile or something.
After James has finished singing play the opening riff again.

Now to the second verse..

|---------------------------------------------------------
|---------------------------------------------------------
|-------------------------------7-7-7-7--7-7--------------
|-----------7-7-7-7--7-7-7-7----7-7-7-7--7-7--------------
|-----------7-7-7-7--7-7-7-7----5-5-5-5--5-5-8-5---5------ 
|-----------5-5-5-5--5-5-5-5---------------------6--------
I'm breathing..... Show my rage....

|---------------------------------------------------------
|---------------------------------------------------------
|-------------------------------7-7-7-7--7-7--------------
|-----------7-7-7-7--7-7-7-7----7-7-7-7--7-7--------------
|-----------7-7-7-7--7-7-7-7----5-5-5-5--5-5-8-5---5------ 
|-----------5-5-5-5--5-5-5-5---------------------6--------
Could it be..... Tell me now.....

And then the build up to the chorus....

|---------------------------------------------------------
|---------------------------------------------------------
|--3-3-3-3---9-9-9-9---6-6-6-6---12-12-12-12--------------
|--3-3-3-3---9-9-9-9---6-6-6-6---12-12-12-12--------------
|--1-1-1-1---7-7-7-7---4-4-4-4---10-10-10-10-------------- 
|---------------------------------------------------------

Chorus
[ Tab from: http://www.guitartabs.cc/tabs/e/emf/they_are_here_tab.html ]
|---------------------------------------------------------
|---------------------------------------------------------
|---------------------------------------------------------
|--4/6--6-6-xx-7----4/6--6-6-xx-7----4/6--6-6-xx-7-------- 
|--4/6--6-6-xx-7----4/6--6-6-xx-7----4/6--6-6-xx-7--------
|--2/4--4-4-xx-5----2/6--4-4-xx-5----2/6--4-4-xx-5-------- and so on..

They're here They're here around me

After the chorus repeat the opening riff again play the same sequence as in the second verse.

Here is the solo:

|----------------------12-12p10---12p10---12p10----
|----1-3-5-8-10-13-10----------10------10------10--
|--2-----------------------------------------------
|--------------------------------------------------
|-------------------------------------------------- 
|--------------------------------------------------
|-12-12p10-- 12p10----12p10------8-10-12-13-15-17----
|---------10------10-------10-10------------------15-
|----------------------------------------------------
|----------------------------------------------------
|----------------------------------------------------
|----------------------------------------------------
|-17-17p15---17p15---17p15----17-17p15---17p15---17p15---
|---------15------15------15----------15------15------15-
|--------------------------------------------------------
|--------------------------------------------------------
|-------------------------------------------------------- 
|--------------------------------------------------------

Then back to the chorus build up...

|---------------------------------------------------------
|---------------------------------------------------------
|--3-3-3-3---9-9-9-9---6-6-6-6---12-12-12-12--------------
|--3-3-3-3---9-9-9-9---6-6-6-6---12-12-12-12--------------
|--1-1-1-1---7-7-7-7---4-4-4-4---10-10-10-10-------------- 
|---------------------------------------------------------

And if you see me staring.....

I'm unsure about the ending but it goes something like this:

|---11--9-8--9-8--9-11------11--9-8--9-8--9-11--
|-----------------------------------------------
|-----------------------------------------------
|-----------------------------------------------
|-------------------------------------------- --
|-----------------------------------------------
|--------------------------------------------
|--------------------------------------------
|--------------------------------------------
|---6--------6--------6--------6--------7*---
|---6--------6--------6--------6--------7----
|---4--------4--------4--------4--------5----

* let ring
h hammer
p pull off
/ slide


Comments