Emery - Secret Chords & Tabs

 

Secret Chords & Tabs

Emery Chords & Tabs

Version: 1 Type: Bass Tab 0 ratings
1 star 2 stars 3 stars 4 stars 5 stars
comments

Secret Bass Tab

Gran cancion,gran banda. Emery-The secret
Tuning:Drop D
Tabbed by: Mario Oscar(Omertoscar)

 Intro:
G|----------------------------------------------------------------------------|
D|----------------------------------------------------------------------------|
A|222222222222111111111111-12/222222222224111111111112------------------------|
D|----------------------------------------------------66666666689444469111111-|
                 Coda x2:
G|-------------/-------------------------------------------------------------|
D|-------------/-------------------------------------------------------------|
A|-------------/--------------------------44444-44-44-44-44------------------|
D|66666666666--/1-1-1-1-1-1-1-1-1-1-1-1-1------------------------------------|

 Before verse   Verse x2:
G|-------------/-------------------------------------------------------------|
D|-------------/-------------------------------------------------------------|
A|-------------/----------------1111111111111111-----------------------------|
D|1-1-1-1-1-1-1/1111111111111111---------------------------------------------|

 To fell your hands...
G|---------------------------------------------------------------------------|
D|---------------------------------------------------------------------------|
A|----------------44444444444444-2222222222222222-1111111111111111-----------|
D|1111111111111111-----------------------------------------------------------|

 (Coda x2)

 Let ring this notes in 1:40:
G|---------------------------/
D|---------------------------/         CODA X2
A|-4/13-11-9-9-9-------------/
D|---------------------------/
[ Tab from: http://www.guitartabs.cc/tabs/e/emery/secret_btab.html ]
 (2:18) x3
G|---------------------------------------------------------------------------|
D|--8-7-5-7-5-4-0-2-4-5-4-2-----0-2-0---0-2-4--0-4-6-------------------------|
A|-5-----------4-----------0-4-5-----4-2------2------------------------------|
D|---------------------------------------------------------------------------|

  From you...x2
G|---------------------------------------------------------------------------|
D|---------------------------------------------------------------------------|
A|-66666666666666666666-4444444444444444444----------------------------------|
D|---------------------------------------------------------------------------|


G|---------------------------------------------------------------------------|
D|---------------------------------------------------------------------------|
A|-22222222222224111111111111112---------------------------------------------|
D|------------------------------66666666689444469111111-666666666666---------|

  Bridge (the bass starts playing in 3:38)
G|---------------------------------------------------------------------------|
D|---------------------------------------------------------------------------|
A|----------------4444444444444444-2222222222222222-1111111111111111---------|
D|1111111111111111-----------------------------------------------------------|

 (5:20)x2
G|---------------------------------------------------------------------------|
D|---------------------------------------------------------------------------|
A|99999999999999-------------------------------------------------------------|
D|--------------1111111111111111---------------------------------------------|

 End
G|---------------------------------------------------------------------------|
D|---------------------------------------------------------------------------|
A|---------------------------------------------------------------------------|
D|-4-------------------------------------------------------------------------|

Thats all not perfect,but so close you can send this to other guitar sites but
dont take credit...well if you want to take it .i dont need credit

Saludos a mexico  arriba Emery!!!
Comments