Embrace - Wonder Chords & Tabs

 

Wonder Chords & Tabs

Embrace Chords & Tabs

Version: 1 Type: Tab 0 ratings
1 star 2 stars 3 stars 4 stars 5 stars
comments

Wonder Tab

   
-------------------------------------------------------------------------------
			     Wonder - Embrace
-------------------------------------------------------------------------------

Tabbed by: Terence Hall - tezhall
Email: tez@affordablesupplements.co.uk

Tuning: Standard

from the If You've Never Been album, listen to the CD for the strumming
and solo as per usual ;)

Verse 1;

e|-0---0--------0----1---0---1---3--||
B|-1---1--------1----1---1---1---3--||.
G|-0---0--------2----2---0---2---0--||
D|-2---0--------2----3---2---3---0--||.
A|-3---2--------0----1---3---1---2--||
E|-0---0--------0----1---0---1---3--||
   C  C/F#(?)   Am   F   C   F   G

All the signs were there for me to see, if I cry out with fear I'll feel
more afraid. So beat sense back into me, for you are like forbidden fruit
out of my reach

Bridge;

e|-1---3--|
B|-1---3--|
G|-2---0--|
D|-3---0--|
A|-1---2--|
E|-1---3--|
   F   G

And I forgot what I had sometimes

Chorus 1;

e|-0---3---0----1--|
B|-1---3---1----1--|
G|-0---0---2----2--|
D|-2---0---2----3--|
A|-3---2---0----1--|
E|-0---3---0----1--|
   C   G   Am   F

But if everyone has their shot and moves on, and you can't get out the way

Link;

e|-0---1---0---3--|
B|-1---1---1---3--|
G|-0---2---0---0--|
D|-2---3---2---0--|
A|-3---1---3---2--|
E|-0---1---0---3--|
   C   F   C   G

Then it's you that wonder will save

Verse 2;

e|-0---0--------0----1---0---1---3--||
B|-1---1--------1----1---1---1---3--||.
G|-0---0--------2----2---0---2---0--||
D|-2---0--------2----3---2---3---0--||.
A|-3---2--------0----1---3---1---2--||
E|-0---0--------0----1---0---1---3--||
   C  C/F#(?)   Am   F   C   F   G

You were mine, but now you're mine to want, and I knew if you'd cut the
cords I'd rush like balloons I'd fall, it's criminal to pause, as you basked
in the sea's applause I had it all

Bridge;

e|-1---3--|
B|-1---3--|
G|-2---0--|
D|-3---0--|
A|-1---2--|
E|-1---3--|
   F   G

And I forgot what I had sometimes

Chorus 2; (rpt 3 times)

e|-0---3---0----1--|
B|-1---3---1----1--|
G|-0---0---2----2--|
D|-2---0---2----3--|
A|-3---2---0----1--|
E|-0---3---0----1--|
   C   G   Am   F
[ Tab from: http://www.guitartabs.cc/tabs/e/embrace/wonder_tab.html ]
But if everyone has their shot and moves on, and you can't get out the way
Well it's all for the best it's all a lie that everyone has their day
Yes if everyone has their shot and moves on, and you just get in the way

Link;

e|-0---1---0---3--|
B|-1---1---1---3--|
G|-0---2---0---0--|
D|-2---3---2---0--|
A|-3---1---3---2--|
E|-0---1---0---3--|
   C   F   C   G

Then it's you that wonder will save

Solo;

e|-0---0---1---3--||
B|-1---1---1---3--||.
G|-0---0---2---0--||
D|-2---2---3---0--||.
A|-3---3---1---2--||
E|-0---0---1---3--||
   C   C   F   G

Lyrics here are a variation on the tried and tested la-la-la theme :)

Pre-outro; (running out of different names for these riffs hehe) repeat 3 times

e|-1---3---0---0-----0---|
B|-1---3---1---1-----1---|
G|-2---0---0---0-----2---|
D|-3---0---2---0-----2---|
A|-1---2---3---2-----0---|
E|-1---3---0---0-----0---|
   F   G   C  C/F#   Am

Don't let them make you feel small with their hands like guns at your head
They'll claw but they'll never win

Bridge;

e|-1---3--|
B|-1---3--|
G|-2---0--|
D|-3---0--|
A|-1---2--|
E|-1---3--|
   F   G

If you let wonder in

Chorus 3; (rpt 3 times)

e|-0---3---0----1--|
B|-1---3---1----1--|
G|-0---0---2----2--|
D|-2---0---2----3--|
A|-3---2---0----1--|
E|-0---3---0----1--|
   C   G   Am   F

Cause if everyone has their shot and moves on, and you can't get out the way
Well it's all for the best it's all a lie that everyone has their day
Yes if everyone has their shot and moves on, and you just get in the way

Link;

e|-0---1---0---3--|
B|-1---1---1---3--|
G|-0---2---0---0--|
D|-2---3---2---0--|
A|-3---1---3---2--|
E|-0---1---0---3--|
   C   F   C   G

Then it's you that wonder will save

Chorus 4;

e|-0---3---0----1--|
B|-1---3---1----1--|
G|-0---0---2----2--|
D|-2---0---2----3--|
A|-3---2---0----1--|
E|-0---3---0----1--|
   C   G   Am   F

Cause if everyone has their shot and moves on, and you can't get out the way
Well it's all for the best it's all a lie that everyone has their day
Yes if everyone has their shot and moves on, and you just get in the way

Outro; Repeat (almost) 3 times

e|-0---1---0---3--|
B|-1---1---1---3--|
G|-0---2---0---0--|
D|-2---3---2---0--|
A|-3---1---3---2--|
E|-0---1---0---3--|
   C   F   C   G

Then it's you that wonder will save
Yes it's you wonder will save
Yes it's you wonder will save (end on 2nd C)

Cheers folks, email me any corrections or requests

Tez
Comments