Embodyment - Belly Up Chords & Tabs

 

Belly Up Chords & Tabs

Embodyment Chords & Tabs

Version: 2 Type: Tab 0 ratings
1 star 2 stars 3 stars 4 stars 5 stars
comments

Belly Up Tab

   
Song: Belly Up
Artist: Embodyment
CD: Hold Your Breath
tabbed by: Chris Dupont
If you have a question, correction, remark, or if you were able to use
this tab, Email me @ brockytheavenger@hotmail.com


On this song, they actually do use a 6-string guitar.  Dropped D tuning.
D-A-D-G-B-E

((MAIN RIFF))
Guitar 1
[----------------------------------]
[----------------------------------]
[----------------------------------]
[5-5-5--7-7-7-10-10-10-10--7-7-7-7-]
[3-3-3--0-0-0--8--8--8--8--0-0-0-0-]
[3-3-3--0-0-0--8--8--8--8--0-0-0-0-]

[----------------------------------------]
[----------------------------------------]
[----------------------------------------]
[-10-10-10-10--7-7-7-7--7-7-7-7-7-7-7-7-7]
[--8--8--8--8--0-0-0-0--5-5-5-5-5-5-5-5-5]
[--8--8--8--8--0-0-0-0--5-5-5-5-5-5-5-5-5]


During this riff, every once in a while, Guitar 2 throws in this octave...You'll have to listen for when.
[-------------------------------------]
[-------------------------------------]
[-7-----7-----7-----7-----------------]
[-x-----x-----x-----x-----------------]
[-5-x-x-5-x-x-5-x-x-5-----------------]
[-------------------------------------]


<>
BOTH GUITARS PLAY THIS TWO TIMES:
(guitar 1)
[------------------------------------------------------------------]
[------------------------------------------------------------------]
[------------------------------------------------------------------]
[-0---0---0---0----8---8---8---8----5-5-5-5-5-5-5-5-5-5-5-5-5-5-5-5]
[-0---0---0---0----8---8---8---8----5-5-5-5-5-5-5-5-5-5-5-5-5-5-5-5]
[-0---0---0---0----8---8---8---8----5-5-5-5-5-5-5-5-5-5-5-5-5-5-5-5]

(guitar 2)
[------------------------------------------------------------------]
[-1---1---1---1---------------------3-3-3-3-3-3-3-3-3-3-3-3-3-3-3-3]
[---2---2---2---2--2---2---2---2----0-0-0-0-0-0-0-0-0-0-0-0-0-0-0-0]
[--------------------3---3---3---3--0-0-0-0-0-0-0-0-0-0-0-0-0-0-0-0]
[------------------------------------------------------------------]
[------------------------------------------------------------------]


THEN THEY PLAY THIS TWO TIMES:
(guitar 1)
[-----------------------------------------------------------------]
[-----------------------------------------------------------------]
[-----------------------------------------------------------------]
[-0---0---0---0----8---8---8---8---5-5-5-5-5-5-5-5-5-5-5-5-5-5-5-5]
[-0---0---0---0----8---8---8---8---5-5-5-5-5-5-5-5-5-5-5-5-5-5-5-5]
[-0---0---0---0----8---8---8---8---5-5-5-5-5-5-5-5-5-5-5-5-5-5-5-5]
[ Tab from: http://www.guitartabs.cc/tabs/e/embodyment/belly_up_tab_ver_2.html ]
guitar 2
[-----------------------------------------------------------------]
[-1---1---1---1--------------------3-3-3-3-3-3-3-3-3-3-3-3-3-3-3-3]
[------------------2---2---2---2---0-0-0-0-0-0-0-0-0-0-0-0-0-0-0-0]
[----------------------------------0-0-0-0-0-0-0-0-0-0-0-0-0-0-0-0]
[-----------------------------------------------------------------]
[-----------------------------------------------------------------]


<>
BOTH GUITARS PLAY THIS 2 TIMES
GUITAR 1:
[---------------------------------------------]
[---------------------------------------------]
[---------------------------------------------]
[-8-------------------------------------------]
[-8-------------------------------------------]
[-8-------------------------------------------]
GUITAR 2:
[---------------------------------------------]
[---------------------------------------------]
[-7---7-------------7---7---------------------]
[---8---8--7---7-------8---8---7----7---------]
[------------8---8----------------8---8-------]
[---------------------------------------------]

GUITAR 1:
[-------------------------------------------------------------]
[-------------------------------------------------------------]
[-------------------------------------------------------------]
[-0-----------------------------------------------------------]
[-0-----------------------------------------------------------]
[-0-----------------------------------------------------------]
GUITAR 2:
[------------------------------------------------------------------]
[------------------------------------------------------------------]
[------------------------------------------------------------------]
[-12po0-12po0--10po0-10po0--12po0-12po0-(10po0-10po0)*-------------]
[------------------------------------------------------------------]
[------------------------------------------------------------------]
*On the 2nd time, play --12po0-12po0-- instead of --10po10-10po0---]

<>
[---------------------------------------------------------------]
[---------------------------------------------------------------]
[10s12--10----10------------------------------------------------]
[-x--x---x-----x------------------------------------------------]
[-8s10---8-----8------------------------------------------------]
[---------------------------------------------------------------]

<>
[-----------------------------------------------------------------]
[-----------------------------------------------------------------]
[10101010--7-7-7-7-14-14-14-14-7-7-7-7-10101010--4-4-4-4-4-4-4-4-4]
[-x-x-x-x--x-x-x-x--x--x--x--x-x-x-x-x--x-x-x-x--x-x-x-x-x-x-x-x-x]
[-8-8-8-8--5-5-5-5-12-12-12-12-5-5-5-5--8-8-8-8--2-2-2-2-2-2-2-2-2]
[-----------------------------------------------------------------]

<>
GUITAR 1
[------------------------]
[------------------------]
[------------------------]
[-5--5--5---7------------]
[-3--3--3---0------------]
[-3--3--3---0------------]
GUITAR 2
[------------------------]
[10-10-10---7------------]
[-x--x--x---x------------]
[-8--8--8---5------------]
[------------------------]
[------------------------]

<>
Intro: Main riff 4x
Verse: Main riff 4x
Chorus
Post chorus
Pre-Verse: Main riff 1x
Verse: Main riff 3x
Chorus
Post chorus 6x (guitar 3 plays fill A the last 4 times)
Final half Verse: Main riff 2x
Outro: Main riff 4x (guitar 3 plays fill B)
End
Comments