Emanuel - The Willing Chords & Tabs

 

The Willing Chords & Tabs

Emanuel Chords & Tabs

Version: 2 Type: Tab 0 ratings
1 star 2 stars 3 stars 4 stars 5 stars
comments

The Willing Tab

   
Band: Emanuel
Song: The Willing
Tabbed by: Nelson
Tuning Drop D

* = PM
b = bend
x = mute

Guitar I

intro

e|-----------------------|
B|-----------------------|
G|-----------------------|
D|-4--5--4----4--5--6--7-|
A|-4--5--4----4--5--6--7-|
D|-4--5--4----4--5--6--7-|

verse

(listen to the song to understand this part)
e|----------------------------------------| r
B|----------------------------------------| e
G|-6-6-6-6-6-6-6-4-0--6-6-6-6-6-6-6-4-0---| a  4x's                          
D|----------------------------------------| p
A|----------------------------------------| e
D|----------------------------------------| t

pre-chorus

e|--------------------------------------| r
B|--------------------------------------| e
G|--------------------------------------| a 2x's
D|-4444-5555-4444-5555-4-4-4-4-000-2222-| p
A|-4444-5555-4444-5555-4-4-4-4-000-2222-| e
D|-4444-5555-4444-5555-4-4-4-4-000-2222-| t
                               ***
[ Tab from: http://www.guitartabs.cc/tabs/e/emanuel/the_willing_tab_ver_2.html ]
chorus (repeat x's 2)
  
e|------------------------------------------------------------------|
b|-9-00-9-00-9-00-9-00-9-00-9-00-9-00-9-00-9-00-9-00-9-00-9-00-9-00-|
G|------------------------------------------------------------------|
D|------------------------------------------------------------------|
A|------------------------------------------------------------------|
D|------------------------------------------------------------------|
   
e|---------------------------------------------------------------------|
b|-14-9-9-14-9-9-14-9-9-14-9-9-14-9-9-14-9-9-14-9-9-14-9-9-b14-9-13-14-|
G|---------------------------------------------------------------------|
D|---------------------------------------------------------------------|
A|---------------------------------------------------------------------|
D|---------------------------------------------------------------------|

repeat verse 4 x's
repeat pre-chorus 2x's
repeat chorus 2x's

bridge

repeat chorus 2 x's

repeat verse 2x's

e---------------------------------------|
B---------------------------------------|
G---------------------------------------|
D-4-4-4-4-4-4-4-2-0--4-4-4-4-4-4-4-2-0--|
A-4-4-4-4-4-4-4-2-0--4-4-4-4-4-4-4-2-0--|
D-4-4-4-4-4-4-4-2-0--4-4-4-4-4-4-4-2-0--|

Guitar II

verse 

e|------------------------------------------| r
B|------------------------------------------| e
G|-6-6-6-6-6-6-6--4--0--6-6-6-6-6-6-6--4--0-| a 4x's 
D|-x-x-x-x-x-x-x--x--0--x-x-x-x-x-x-x--x--0-| p
A|-4-4-4-4-4-4-4--2--0--4-4-4-4-4-4-4--2--0-| e
D|------------------------------------------| t
   * * * * * * *  *  *  * * * * * * *  *  *

pre-chorus

e|--------------------------------------| r
B|--------------------------------------| e
G|--------------------------------------| a 2x's
D|-4444-5555-4444-5555-4-4-4-4-000-2222-| p
A|-4444-5555-4444-5555-4-4-4-4-000-2222-| e
D|-4444-5555-4444-5555-4-4-4-4-000-2222-| t
                               ***

chorus

e|--------------------------------------------------------------| r
B|--------------------------------------------------------------| e
G|-6-6-6-6-6-6-6-6----------------------------------------------| a 4x's
D|-6-6-6-6-6-6-6-6-7-7-7-7-7-7-7-7-4-4-4-4-4-4-4-4-4-4-4-4-4-4-4| p
A|-4-4-4-4-4-4-4-4-7-7-7-7-7-7-7-7-4-4-4-4-4-4-4-4-4-4-4-4-4-4-4| e
D|-----------------7-7-7-7-7-7-7-7-4-4-4-4-4-4-4-4-4-4-4-4-4-4-4| t

repeat verse
repeat pre-chorus
repeat chorus

bridge

repeat chorus
repeat verse 2x's
Comments