Elza Sam - La Manera Del Uno Chords & Tabs

 

La Manera Del Uno Chords & Tabs

Elza Sam Chords & Tabs

Version: 1 Type: Tab 0 ratings
1 star 2 stars 3 stars 4 stars 5 stars
comments

La Manera Del Uno Tab

   
La Manera Del La Uno 3:43
| ---------------------------| ---------------------------| -----------------------------------------------
| --------------0-----------| ---------------------------| -----------------------------------------------
| ---------------------------| ----------------------7---| -----------------------------------------------
| --2---------------5-5----| --2----------------7-7--| --2---------------------------------13/14-
| ----1-/5---------5-5----| ----1-/5-----------------| ---------5-7-8-----------| ----------5-7-10-------


[ Tab from: http://www.guitartabs.cc/tabs/e/elza_sam/la_manera_del_uno_tab.html ]
| ----1-/5-------------------13-12----------
| ----------5-7-10-12-10-------------------
	
| --------------------------------| ------------------------------------| -----------------------------------------------
| --------------------------------| ------------------------------------| --------------11-12-----------------0------
| --------------------------------| ------------------------------------| -------10-9---------------7-----------------
| --2--------2-------2-------7-| --2---------2---------2-------9--| -7-9-------------------------5 /9-----------
| -----1-/5----1-/5---1-/6---| ----1-/5------1-/5------1-/8----| ------------------------------------9-10----
| --------------------------------| -------------------------------------| ----------------------------------------------
	
| --------------------------------------------------------------| --------------------------------------------
| -----------------------------------0-------------------------*| -------------------------------------------
| --------------------------------------------------------------| --------------------------------------------
| --2--------2---------2--------------------------------------| -----------------2-------------------------
| -----1-/5----1-/5-----1-/5---------------10-------------*| -------------------1-/5------------------
| -------------------------------5-7-8---/12---12--17-----| --15--\13-12----------17-19--20---
	
| ------------------------------------| ------------------------------------| ------------------------------------------------------|--------
| ------------------------5----------| ------------------------5-----------|* ---------------------------------------------------*|-------
| --5-----------------------4-/7-5-| --5-----------------------4-/7-5-| -----------------------------------------------------|-------
| ----3-/7---------------------------| ----3-/5--------------------------| --14------------------------------------------14--|--13---
| -----------8-10--11-------------| -----------8-10--11--------------|*------13-/17-----------------------17-\13-----*|-------
| ------------------------------------| -------------------------------------| ----------------17-19-20-19-17---------------|-------
	
| ---------------------------| ---------------------------|--------------------------3------| ----------------------------------------
| --------------0-----------| ---------------------------|----------------0----------------| ----------------------------------------
| ---------------------------| ---------------------------|----------------------------------| ----------------------------------------
| --2-----------------------| --2-----------------------|--2-------------------------------| --2--------2-------2---------10--9-
| ----1-/5-----------------| ----1-/5------------10--|----1-/5-------------------------| -----1-/5----1-/5---1-/10----------
| ---------5-7-8-----------| ----------5-7-10-------|----------5-7--3--1-----3------| ----------------------------------------
	E	G#	E	G#	A
Comments