Elvis Presley - Love Me Tender Chords & Tabs

 

Love Me Tender Chords & Tabs

Elvis Presley Chords & Tabs

Version: 2 Type: Tab 0 ratings
1 star 2 stars 3 stars 4 stars 5 stars
comments

Love Me Tender Tab

Beginning
----------------------------
---1-0-1-3---3-1-0---0-1----
-0---------2-------2--------
----------------------------
----------------------------
---------------------------- REPEAT
[ Tab from: http://www.guitartabs.cc/tabs/e/elvis_presley/love_me_tender_tab_ver_2.html ]
Middle
0-0-0-0-0-0-0--------0------
--------------3-1-3---------
----------------------------
----------------------------
----------------------------
----------------------------

End
-0-0-1-0---------0----------
--------3---3-1-0--3-1------
----------2-----------------
----------------------------
----------------------------
----------------------------
Comments