Elvis Presley - Heartbreak Hotel Chords & Tabs

 

Heartbreak Hotel Chords & Tabs

Elvis Presley Chords & Tabs

Version: 1 Type: Tab 0 ratings
1 star 2 stars 3 stars 4 stars 5 stars
comments

Heartbreak Hotel Tab

TabBEd bY StEvEn (aka) #1 RaGe FaN Of AlL TImE.


e|12-12-12-12--------12|12-12-12-12-12-------|
B|12-12-12-12-12-15--12|12-12-12-12----12-15\|
G|X--------------------|---------------------|
D|X--------------------|---------------------|
A|X--------------------|---------------------|
E|X--------------------|---------------------|

e|12-12-12-12-------12|12-12-12-12-12-12-12-12-12-12-12-12|
B|12-12-12-12-12-15---|16-16-16-16-16-16-16-16-16-16-16-16|
G|X-------------------|-----------------------------------|
D|X-------------------|-----------------------------------|
A|X-------------------|-----------------------------------|
E|X-------------------|-----------------------------------|
[ Tab from: http://www.guitartabs.cc/tabs/e/elvis_presley/heartbreak_hotel_tab.html ]
e|X-----------------|--------------------|-------------|
B|2----2----2----2--|--2----2----2----2--|--0--0--0--0-|
G|2----2----2----2--|--2----2----2----2--|--2--2--2--2-|
D|2----2----2----2--|--2----2----2----2--|--1--1--1--1-|
A|0----0----0----0--|--0----0----0----0--|--2--2--2--2-|
E|X-----------------|--------------------|-------------|

e|X-X--O--------0-|-0----12-12|-12-12-|
B|X-X--O--------0-|-0----12-12|-12-12-|
G|1-1--1--1--1--1-|-1----13-13|-13-13-|
D|2-2--2--2--2--2-|-2----14-14|-14-14-|
A|2-2-----2--2----|-2---------|-------|
E|O-O-----0--0----|-0---------|-------|

e|12-------14-------12---------------|
B|12-14-12-14-12-14-12-14-12-14-12---|
G|---14-12-14-12-14----14-12-14-12---|
D|---------------------------------14|
A|-----------------------------------|
E|-----------------------------------|

e|--3--0--3----3|--3---O--3----|--------|O---|---5-4----|
B|----------2---|----2------2--|--------|O---|---5-4----|
G|----------O---|-------------O|-2-2-2-2|1---|---5-4----|
D|--------------|--------------|-1-1-1-1|2---|---7-6----|
A\O-------------|O-------------|-2-2-2-2|2---|---8-7----|
E|--------------|--------------|--------|O---|----------|

ThAT'S ThE HeARTBREAk HOTeL . It'S ComPlEtELy cORRecT. PlEAsE AgrEE WiTH Me.
Comments