Elvis Presley - Blue Moon Chords & Tabs

 

Blue Moon Chords & Tabs

Elvis Presley Chords & Tabs

Version: 1 Type: Bass Tab 0 ratings
1 star 2 stars 3 stars 4 stars 5 stars
comments

Blue Moon Bass Tab

Blue Moon (Elvis)

ok here it is it starts out like this
E-----------3---5---
A--5----2-----------
D--------------------
G--------------------
ITS THAT EASY!
Then the bridge...
E------------------------------------------------------------------------------------------------

A--2----4---5--5---4--2----4----5--5--4--2---4----5--5--4---2--1--0--0000--2222-4
[ Tab from: http://www.guitartabs.cc/tabs/e/elvis_presley/blue_moon_btab.html ]
D------------------------------------------------------------------------------------------------

G------------------------------------------------------------------------------------------------

and theeeennnnnn when at the end of a verse
instead of what you normally play you play...
E---------4444----
A--5555--------5-
D-------------------
G-------------------

thats it!my next feat will to submit Goody Two Shoes.....if olga doesnt
already have it.
Chesterfeild Snapdragon Mcfisticuffs
Comments