Elvis Jackson - You And I Chords & Tabs

 

You And I Chords & Tabs

Elvis Jackson Chords & Tabs

Version: 1 Type: Bass Tab 0 ratings
1 star 2 stars 3 stars 4 stars 5 stars
comments

You And I Bass Tab

You and I
Elvis Jackson
By: Tomaž Mihelec (MSN: bf_tompenny@hotmail.com)


Main part of the song:
G-|---------------------------------------|
D-|---------------------------------------|
A-|---------------------------------------|
E-|--5-5-5-5-0-2-3-3-3-2-0----------------|

[ Tab from: http://www.guitartabs.cc/tabs/e/elvis_jackson/you_and_i_btab.html ]
This is the easy ska beat:
                                   Just keep them comming
G-|---------12-11--------10-11-11-11-11-11-11-11--11-10---------------------------------|
D-|---9-12---------9-12----------------------------------------------11-9-7-------------|
A-|-------------------------------------------------------------------------------------|
E-|-------------------------------------------------------------------------------------|

The part before: "killing people in the name of peace" line and after it.
G-|-----------------------------|
D-|-----------------------------|
A-|--2-5------------------------|
E-|-----------------------------|


Hard core part before end:
G-|------------------------------------------|
D-|------------------------------------------|
A-|--------------------------------3-5-------|
E-|-3-5--3-5--3-5--3-5--3-5------------------|


Ending:
G-|---------------|
D-|---------------|
A-|--2-5----------|
E-|-------5-------|
(let them ring [each tone for like 3 seconds])

Have fun playing this :D
Comments