Elvis Jackson - Hawaiian Club Chords & Tabs

 

Hawaiian Club Chords & Tabs

Elvis Jackson Chords & Tabs

Version: 1 Type: Bass Tab 0 ratings
1 star 2 stars 3 stars 4 stars 5 stars
comments

Hawaiian Club Bass Tab

A well known Slovenian Ska-HardCore band
Hawaiian Club
Elvis Jackson
By: Tomaž Mihelec (MSN: bf_tompenny@hotmail.com)

The main line:
G-|-----------------------------------------------------|
D-|------4-7-4-----------------4-7-4--7-5-4-------------|
A-|---5-------------5-9-5---7------------------7--------|
E-|---------------7-------------------------------------|

[ Tab from: http://www.guitartabs.cc/tabs/e/elvis_jackson/hawaiian_club_btab.html ]
G-|--11---------------------------------------------------|
D-|-----12------------------------------7-----------------|
A-|---------12-9--9-10-10-10-10---10-9-7------------------|
E-|-------------------------------------------------------|

Before "hard core" part:
G-|--------------------------------------|
D-|----10-----10------10-----------------|
A-|-------11------11------11-------------|
E-|--------------------------------------|

The "hard core" part:
G-|------------------------------------------------------------------------------|
D-|------------------------------------------------------------------------------|
A-|--4-4-4(let the 3rd one ring a bit)-4--3-3-3-3--------------------------------|
E-|-------------------------------------------------------------2-2-2-2-2--------|

It's a simple bass tab and fun to play :D
Enjoy!
Comments