Elvis Costello - My Funny Valentine Chords & Tabs

 

My Funny Valentine Chords & Tabs

Elvis Costello Chords & Tabs

Version: 1 Type: Bass Tab 0 ratings
1 star 2 stars 3 stars 4 stars 5 stars
comments

My Funny Valentine Bass Tab

My funny Valentine
(As played by Elvis Costello)
Richard Rodgers & Lorenz Hart

A simple bass line for a beautiful song. Be careful on the tempo and play deep.

[ Tab from: http://www.guitartabs.cc/tabs/e/elvis_costello/my_funny_valentine_btab.html ]
G---||--------------------------------------------------------------------
D---||--------------------------------------------------------------------
A---||----4--3--4--3--4--------------4--3--2---1----------2---------------
E---||-----------------------5--2--4-----------------5--2---5-------------


G-------------------------------------------------------------------------
D-------------------------------------------------------------------------
A------2-------2--------2------------4--3--2--1--------4--3--0--2--7------
E---0-----0--0-----0--0----0--5--4--------------5--4----------------------


Figured by Miguel Ángel Godínez (migueloncito@yahoo.com)
Comments