Elton John - Your Song Chords & Tabs

 

Your Song Chords & Tabs

Elton John Chords & Tabs

Version: 2 Type: Tab 0 ratings
1 star 2 stars 3 stars 4 stars 5 stars
comments

Your Song Tab

This is my first tab as a member, however i think it is right. This is not actually
the intro of the song, just the ending (best part) 8).

:-----0-----0--3--------0-----0--3----------------:
:--0-----3-----------0-----3----------------------:
:-------------------------------------------------:
:-------------------------------------------------:
:-------------------------------------------------:
:-------------------------------------------------:
[ Tab from: http://www.guitartabs.cc/tabs/e/elton_john/your_song_tab_ver_2.html ]
                    let ring
:--0--0-----3------0~~~~~-------------------------:
:--------3------3---------------------------------:
:-------------------------------------------------:
:-------------------------------------------------:
:-------------------------------------------------:
:-------------------------------------------------:

:--0----------------------------------------------:
:------3--0---------------------------------------:
:------------0--2--------------2--0-0-0~~~~-------:
:------------------2-----0--2---------------------:
:-------------------------------------------------:
:-------------------------------------------------:


I hope you don't mind,
I hope you don't mind,
that I put down in words...

How wonderful life is, while you're in the world...
Comments