Elton John - Tiny Dancer Chords & Tabs

 

Tiny Dancer Chords & Tabs

Elton John Chords & Tabs

Version: 1 Type: Tab 0 ratings
1 star 2 stars 3 stars 4 stars 5 stars
comments

Tiny Dancer Tab

   
Elton John - Tiny Dancer

This probably seems a little longer than Dave Grohl or the 
Chili Peppers (or Almost Famous) versions of the song. It is. 
They all cut straight to the chase. Try using your thumb to 
hold down the bass note on the D/F#. If you want to use the 
connector notes like on Elton's piano - add2 after the C, and 
add6 after the F in the intro/outro and chorus.

        Verse Chords:
                C F G Em7 Am7 D/F# Dm7 E7 Am G7 Em
            e |-0-1-3--0---0---2----1--0--0--3--0--
            B |-1-1-0--0---1---3----1--0--1--0--0--
            G |-0-2-0--0---0---2----2--1--2--0--0--
            D |-2-3-0--0---2---0----0--0--2--3--2--
            A |-3-3-2--2---0---0-------2--0--2--2--
            E |---1-3--0-------2-------0-----3--0--
[ Tab from: http://www.guitartabs.cc/tabs/e/elton_john/tiny_dancer_tab.html ]
        Bridge Chords:
                Ab Bb Gm7 Cm G/B G7/B
            e |-4--6---3--3---3---3--
            B |-4--6---3--4---0---0--
            G |-5--7---3--5---0---0--
            D |-6--8---3--5---0---3--
            A |-6--8---5--3---2---2--
            E |-4--6---3-------------

        Chorus Chords:
                F C/E Dm7 Asus4
            e |-1--0---1-------
            B |-1--1---3----3--
            G |-2--0---2----2--
            D |-3--2---0----2--
            A |-3--3---0----0--
            E |-1--0-----------

        Connectors:
                C add2 F add6
            e |-0--0---1--1--
            B |-1--3---1--3--
            G |-0--0---2--2--
            D |-2--2---3--x--
            A |-3--3---3--3--
            E |--------1--1--
Comments