Elton John - This Train Don't Stop There Anymore Chords & Tabs

 

This Train Don't Stop There Anymore Chords & Tabs

Elton John Chords & Tabs

Version: 1 Type: Bass Tab 0 ratings
1 star 2 stars 3 stars 4 stars 5 stars
comments

This Train Don't Stop There Anymore Bass Tab

#----------------------------------PLEASE NOTE---------------------------------#
#This file is the author's own work and represents their interpretation of the #
#song. You may only use this file for private study, scholarship, or research. #
#------------------------------------------------------------------------------#
#                                                                              #
#Song: This Train Don't Stop There Anymore                                     #
#Artist: Elton John                                                            #
#Album: Songs of the West Coast                                                #
#Tabbed by: James Pucyk (pucyk_james@hotmail.com)                              #
#------------------------------------------------------------------------------#
#Elton and Barry Turpin have come up with some gems over the years and this one# 
#is no exception. Elton John's bassist I think has been with him since the     #
#early days and he comes up with some great shit. The thing that caught me     #
#about this bassline is the taseful nature of it, which I guess is the kind of #
#playing style I'm trying to adopt as completly as possible. This is a great   #
#example of a bassline which is melodic and builds with an equal amount of     #
#emotional fury as the other insturments but holds the rhythm but adds in-     #
#valuably to the melody.                                                       #
#                                                                              #
#                               ENJOY                                          #
#------------------------------------------------------------------------------#


Introduction
G|----------------------|----------------------------|
D|-6---5-3--------------|-6---5-3--------------------|
A|-----------6-4-----23-|-----------6-4---0-2-3--23\-|
E|----------------------|----------------------------|

Verse 1
   .
G|----------------------------------------------------------------|
D|----------------------------------------------------------------|
A|------------------------------------------3----5----------5-----|
E|-1-----------------1--------------------------------------------|
   
   
G|----------------------------------------------------------------------|
D|----------------------------------------------------------------------|
A|------------------------------------------------------------------3---|
E|------3------------------------3--------------------0-----------------|

   
G|-------------------------------------------------------------|
D|-------------------------------------------------------------|
A|---------------------------------3---5--------------3----3-5-|
E|--1---------1------------------------------------------------|

   
G|--------------------------------------------------------------------------|
D|--------------------------------------------------------------------------|
A|------------------------------------------------------------------------3-|
E|--3-----------------3--------------------------0--------------------------|

Bridge
   
G|------------------------------------------------------------------------|
D|------------------------------------------------------------------------|
A|---------------------------------4/--6------------------4--66--8----88--|
E|----4----------------------44-------------------------------------------|

   
G|------------------------------------------|
D|------------------------------------------|
A|-1------------------0------0--------------|
E|----------------------------4-----------3-|

   
G|--------------------------------------------------|
D|--------------------------------------------------|
A|----------------------------1-------1---/-6---6\--|
E|--2-----------------------------------------------|

Chorus:


 G|-------------------------|---------------------------|
 D|-----------4/6-----------|------------4/6------------|
 A|--4-------------6----6---|-----------------6-----6---|
 E|-------------------------|---4-----------------------|

                                                       (Transition)
G|---------------------------|-------------------------|----------------------|
D|------------4/6------------|------4/6----------------|----------------------|
A|--4--------------6-----6---|--------------------6-8--|-6-4---0-2-3--2-2-33\-|
E|---------------------------|--------------4----------|----------------------|

Verse 2:
   
G|-------------------------------------------------------------------|
D|---------------------------------------------------------5-/7------|
A|--------------------------------------3---5-----------3---------7\-|
E|--1------------------1---------------------------------------------|
[ Tab from: http://www.guitartabs.cc/tabs/e/elton_john/this_train_dont_stop_there_anymore_btab.html ]
   
G|------------------------------------------------------------------235----|
D|----------------------------------------------------------------------5\-|
A|-----------------------------------------------3-------------3-3---------|
E|------3---------------0----3---------------------------------------------|


   
G|-------------------------------------------------------------------5-7-------|
D|----------------------3-----------------------------------------5-------7-5--|
A|-------------------------3.-------------------3-------5----------------------|
E|--1-------------------------1------------------------------------------------|

   
G|---------------------------------------------------------------------------|
D|---------------------------------------------------------------------------|
A|----------------------------------------------------------------33---33-33-|
E|---3---------------------0---1-----------0---------------------------------|

Bridge
   
G|--------------------------------------------------------------------------|
D|------------------------6-------4/6---------------------------------------|
A|---------------------------6---------------6---------------4--66--8----8--|
E|----4-----------------------4-------------------------------------------1-|

  
G|------------------------------------------|
D|------------------------------------------|
A|-1------------------0------0--------------|
E|----------------------------4-----------3-|

   
G|--------------------------------------------------|
D|----------------22-4-6--------------22-4--6-------|
A|---------2--4----------6--------------------6-----|
E|--2-----------------------------------------------|

Chorus:


 G|-------------------------|---------------------------|
 D|-----------4/6-----------|------------4/6------------|
 A|--4-------------6----6---|-----------------6-----6---|
 E|-------------------------|---4-----------------------|

   
G|---------------------------|--------------------------------|
D|------------4/6------------|--------------------------------|
A|--4--------------6-----6---|--------------------------------|
E|---------------------------|--------------4----4-4---44-44--|

Interlude
   
G|--------------------------------------------------------------------------|
D|---------------------6----------------------------------------------------|
A|--4----------------------------6------------------------------------------|
E|----------------------------------4----------------4-------6-----------66-|

          
G|--------------------------------------------------------------------------|
D|--------------------------------------------------------------------------|
A|-888765-------------------------------------------------------------------|
E|---------6------------------------------6---------------------------------|

   
G|----------------------------------------------------|
D|--5-7-8--------7-8----------9--9----10--------------|
A|------------------------------------------10/(11)\--|
E|----------------------------------------------------|

Bridge (re-introduction)

Rest for 2 bars then go high,
          
G|---------------------------------------------------|
D|-1717-19-20----------------------------------------|
A|---------------------------------------/15---------|
E|---------------------------------------------------|

   
G|---------------------------------------------------|
D|--16----------------------161513-------------------|
A|--------------------------------15--161513---------|
E|-------------------------------------------15--13\-|

Chorus:


 G|-----------------------------|-----------------------------|
 D|-----------4/6-----------4/6-|------------4/6--------------|
 A|--4-------------6----6-------|-----------------6-----6--66-|
 E|-----------------------------|--44-------------------------|

  
G|---------------------------|------------------|--------|
D|------------4/6------------|------456---------|--------|
A|--4--------------6-----6---|-----------6------|-6-8--6-|
E|---------------------------|--------------4---|--------|

   
G|------------------------------|-----------------------------|
D|-----------4/6----------------|------------4/6--------------|
A|--4-------------6----6--------|-----------------6-----6--66-|
E|---------------------------4.-|--4--------------------------|

   
G|---------------------------|-------------------|
D|------------4/6------------|-------------------|
A|--4--------------6-----6---|-------------------|
E|---------------------------|--------------4----|

Outro
G|-----------------------|-------------------------|-----|
D|------------4-32-------|-6-66.--53------------/6-|-(6)-|
A|-------6-4-------4--4--|------------6-4---4--4---|-----|
E|--3-1------------------|-------------------------|-----|

FIN
Comments