Elton John - Funeral For A Friend Chords & Tabs

 

Funeral For A Friend Chords & Tabs

Elton John Chords & Tabs

Version: 3 Type: Tab 0 ratings
1 star 2 stars 3 stars 4 stars 5 stars
comments

Funeral For A Friend Tab

   
Funeral For a Friend/Love Lies Bleeding, By: Elton John

Empty Bar = Rest
B         = Bend
P         = Pull Off
H         = Hammer On
~         = Vibrato

--------------------|--------------------|--------------------|
--------------------|--------------------|--------------------|
--------------------|--10~---------------|--11~---------------|
--10~---------------|--------------------|--------------------|
--------------------|--------------------|--------------------|
--------------------|--------------------|--------------------|


                                                               
--------------------|--------------------|--------------------|
--------------------|--------------------|--------------------|
--12~---------------|--13~---------------|--------------------|
--------------------|--------------------|--12~---------------|
--------------------|--------------------|--------------------|
--------------------|--------------------|--------------------|


                                                                  
--10~-----------------|---------------------|--------------------|
----------------------|---------------------|--------------------|
----------------------|---------------------|--9~------------9r--|
----------------------|--9~-----------------|--------------------|
----------------------|---------------12----|--------------------|
----------------12/---|---------------------|--------------------|


                                                                         
--------------------|------------------------|--------------------------|
--------------------|------------------------|--------------------------|
--------------------|--10----9----9----------|--------------------9-12--|
--10~---------------|------------------12----|--10~---------9h10--------|
--------------------|------------------------|--------------------------|
--------------------|------------------------|--------------7-----------|


                                                                     
--------------------------|--------------------|--------------------|
--------------------------|--------------------|--------------------|
--10b---10----------------|--------------------|--------------------|
--------------12----------|--12~---------------|--------------------|
--------------------12----|--------------------|--10~---------------|
--------------------------|--------------------|--------------------|


                                                            
--------------------------|--------------------------------|
--------------------------|--------------------------------|
--------------------------|-------------------10-----------|
----------------10--12----|--13b---14----14------14-12-10--|
--12~-------14------------|--------------------------------|
--------------------------|--------------------------------|


                                                                               
------------------------|--------------------------|--------------------------|
------------------------|--------------------------|--------------------------|
------------------10----|--11b---12----12----10----|----------------10--12----|
--10~-------13----------|--------------------------|--12~-------14------------|
------------------------|--------------------------|--------------------------|
------------------------|--------------------------|--------------------------|


                                                          
--9b--------11b-11--10--------|--------------------------|
--9b---9---------------13-11--|------------10--11--13----|
------------------------------|--12~---------------------|
------------------------------|--------------------------|
------------------------------|--------------------------|
------------1-----------------|--------------------------|
            *

                                                            
--10b---10----10----10-10-10--|--11b-----12/13-12----------|
------------------------------|----------------------12----|
------------------------------|----------------------------|
------------------------------|----------------------------|
------------------------------|----------------------------|
------------------------------|----------------------------|


                                                          
--------------------------------|------------------------|
--12--13--13----13----12h13p12--|--13~-------13----------|
--------------------------------|------------------11----|
--------------------------------|------------------------|
--------------------------------|------------------------|
--------------------------------|------------------------|


                                                                             
------------------------------|------------------------|--------------------|
------------------------------|------------10----12----|--10~---------------|
--11--12--12----12----11--12--|--13~-------------------|--------------------|
------------------------------|------------------------|--------------------|
------------------------------|------------------------|--------------------|
------------------------------|------------------------|--------------------|


                     Am                         Am      E7               
------------------|--------------------------|--------------------------|
------------------|--5-------5-5-5-------5-5-|--5-------9-9-9-----------|
------------------|--5-------5-5-5-------5-5-|--5-------7-7-7-7---------|
------------------|--7-------7-7-7-------7-7-|--7-------9-9-9-----------|
------------------|--------------------------|-------------------10r----|
------------------|--------------------------|--------------------------|


  Am                         Am      E7               
--------------------------|--------------------------|
--5-------5-5-5-------5-5-|--5-------9-9-9-----------|
--5-------5-5-5-------5-5-|--5-------7-7-7-7---------|
--7-------7-7-7-------7-7-|--7-------9-9-9-----------|
--------------------------|-------------------10r----|
--------------------------|--------------------------|


  Am                         Am      E7               
--------------------------|--------------------------|
--5-------5-5-5-------5-5-|--5-------9-9-9-----------|
--5-------5-5-5-------5-5-|--5-------7-7-7-7---------|
--7-------7-7-7-------7-7-|--7-------9-9-9-----------|
--------------------------|-------------------10r----|
--------------------------|--------------------------|


  Am      E7                 Am      E7          Am               
--------------------------|--------------------------------------|
--5-------5-5-5-------5-5-|--5-------9-9-9-9-9-9-5-5-5-5-5-5-5-5-|
--5-------5-5-5-------5-5-|--5-------7-7-7-7-7-7-5-5-5-5-5-5-5-5-|
--7-------7-7-7-------7-7-|--7-------7-9-9-9-9-9-7-7-7-7-7-7-7-7-|
--------------------------|--------------------------------------|
--------------------------|--------------------------------------|


  G5      C                      G5      C                    
------------------------------|------------------------------|
----------5-5-5-----5-5-5-5-5-|----------5-5-5-----5-5-5-5-5-|
----------5-5-5-----5-5-5-5-5-|----------5-5-5-----5-5-5-5-5-|
--5-------5-5-5-----5-5-5-5-5-|--5-------5-5-5-----5-5-5-5-5-|
--5---------------------------|--5---------------------------|
--3---------------------------|--3---------------------------|


  A5      Dm                     A5      Dm                   
----------5-5-5-----5-5-5-5-5-|----------5-5-5-----5-5-5-5-5-|
----------6-6-6-----6-6-6-6-6-|----------6-6-6-----6-6-6-6-6-|
----------7-7-7-----7-7-7-7-7-|----------7-7-7-----7-7-7-7-7-|
--7---------------------------|--7---------------------------|
--7---------------------------|--7---------------------------|
--5---------------------------|--5---------------------------|


  Fdim                 Fdim             E7                         
--4--------4--------|--4--------4--------|------------------------|
--3--------3--------|--3--------3--------|------------------------|
--4--------4--------|--4--------4--------|-------------------9----|
--------------------|--------------------|--9~-------11--12-------|
--------------------|--------------------|------------------------|
--------------------|--------------------|------------------------|


                                                                                
--------------------------|-------------------------|--------------------------|
--------------------------|-------------------------|--------------------------|
--10b---10----10----------|-------------------------|--8b---9----9--------9----|
--------------------------|------------9--10--12----|-----------------12----12-|
--------------------12----|--12~--------------------|--------------------------|
--------------------------|-------------------------|--------------------------|


                                                                                
---------------------------|--------------------------|------------------------|
---------------------------|--------------------------|------------------------|
--------------------9--12--|--10b---10----------------|--9~-------10p-9--7h-9--|
--10~-----------10---------|--------------12----------|------------------------|
------------12-------------|--------------------10b---|------------------------|
---------------------------|--------------------------|------------------------|


                                                       
-----------------------------|------------------------|
-----------------------------|------------------------|
-----------------------------|-------------------9----|
-----------------------------|-----------11--12-------|
--8p-7----------8p-7---------|------------------------|
--------10h-12--------10p-7--|--7b--------------------|


                                                                                
--------------------------|-------------------------|--------------------------|
--------------------------|-------------------------|--------------------------|
--10b---10----10----------|-------------------------|--8b---9----9--------9----|
--------------------------|------------9--10--12----|-----------------12----12-|
--------------------12----|--12~--------------------|--------------------------|
--------------------------|-------------------------|--------------------------|


                                                                             
---------------------------|--------------------------|---------------------|
---------------------------|--------------------------|---------------------|
--------------------9--12--|--10b---10----------------|--9~-------9----9----|
--10~-----------10---------|--------------12----------|---------------------|
------------12-------------|--------------------10b---|---------------------|
---------------------------|--------------------------|---------------------|


                                                                              
--------------------|------------------|------------------|------------------|
--------------------|------------------|------------------|------------------|
--------------------|------------------|------------------|------------------|
--------------------|------------------|------------------|------------------|
--12~---------------|------------------|------------------|------------------|
--------------------|------------------|------------------|------------------|


                                                                            
------------------|------------------|------------------|------------------|
------------------|------------------|------------------|------------------|
------------------|------------------|------------------|------------------|
------------------|------------------|------------------|------------------|
------------------|------------------|------------------|------------------|
------------------|------------------|------------------|------------------|


                     A5                 
------------------|--------------------|
------------------|--------------------|
------------------|--12r---------------|
------------------|--12r---------------|
------------------|--------------------|
------------------|--------------------|


  Bbmaj7                                             A5                 
--------------------------------------------------|--------------------|
--------------------------------------------------|--------------------|
--------------------------10----------------------|--12r---------------|
-----------10-11-12-13-14----14-13-12-11-10-------|--12r---------------|
--13-13-14----------------------------------14-13-|--------------------|
--6-----------------------------------------------|--------------------|
  *

  Bbmaj7                                             A5                 
--------------------------------------------------|--------------------|
--------------------------------------------------|--------------------|
--------------------------10----------------------|--12r---------------|
-----------10-11-12-13-14----14-13-12-11-10-------|--12r---------------|
--13-13-14----------------------------------14-13-|--------------------|
--6-----------------------------------------------|--------------------|
  *

  Bbmaj7                                             A5                 
--------------------------------------------------|--------------------|
--------------------------------------------------|--------------------|
--------------------------10----------------------|--12r---------------|
-----------10-11-12-13-14----14-13-12-11-10-------|--12r---------------|
--13-13-14----------------------------------14-13-|--------------------|
--6-----------------------------------------------|--------------------|
  *

  Bbmaj7                                             A                  
--------------------------------------------------|--------------------|
--------------------------------------------------|--------------------|
--------------------------10----------------------|--12b---------------|
-----------10-11-12-13-14----14-13-12-11-10-------|--12b---------------|
--13-13-14----------------------------------14-13-|--------------------|
--6-----------------------------------------------|--------------------|
  *

                                                                            
------------------|------------------|------------------|------------------|
------------------|------------------|------------------|------------------|
------------------|------------------|------------------|------------------|
------------------|------------------|------------------|------------------|
------------------|------------------|------------------|------------------|
------------------|------------------|------------------|------------------|


                                          F5        G5       
------------------|------------------|----------------------|
------------------|------------------|----------------------|
------------------|------------------|----------------------|
------------------|------------------|----3----3----5-------|
------------------|------------------|----3----3----5-------|
------------------|------------------|----1----1----3----0--|


  A5                   C5                     G5                 
--------------------|----------------------|--------------------|
--------------------|----------------------|--------------------|
--------------------|----------------------|--10b---------------|
--7-----------------|--10------------------|--10b---------------|
--7-----------------|--10--------------10--|--------------------|
--5--------------0--|--8-------------------|--------------------|


    F5        G5         A5                       C5                     
----------------------|------------------------|------------------------|
----------------------|------------------------|------------------------|
----------------------|------------------------|------------------------|
----3----3----5-------|--7---------7p-5-----5--|-----------------5h7-5--|
----3----3----5-------|--7------7--------7-----|-----------5--7---------|
----1----1----3----0--|--5---------------------|----8-------------------|


  G5                      F5        G5         A     A6 A5       A6 A5  
---------------------|----------------------|--5--5--5--5--5--5--5--5--|
---------------------|----------------------|--5--5--7--5--5--5--7--5--|
---------------------|----------------------|--6--6--6--6--6--6--6--6--|
----------------5----|----3----3----5-------|--7--7--7--7--7--7--7--7--|
----------5--7-------|----3----3----5-------|--------------------------|
---------------------|----1----1----3----0--|--------------------------|


  A     A6 A5       A6 A5    E                                             
--5--5--5--5--5--5--5--5--|--7--7------7--7------|--7--7------------------|
--5--5--7--5--5--5--7--5--|--9--9------9--9------|--9--9------9--9-9-9----|
--6--6--6--6--6--6--6--6--|--9--9------9--9------|--9--9------9--9-9-9----|
--7--7--7--7--7--7--7--7--|----------------------|------------9--9-9-9----|
--------------------------|----------------------|------------------------|
--------------------------|----------------------|------------------------|


    A                          D                    Bm                   
----9-----9-----9-----9---|----5----5----5----5--|----------------------|
----10----10----10----10--|----7----7----7----7--|----7----7----7----7--|
----9-----9-----9-----9---|----7----7----7----7--|----7----7----7----7--|
--------------------------|----------------------|----9----9----9----9--|
--------------------------|----------------------|----------------------|
--------------------------|----------------------|----------------------|


  B                      A                          F#m                      
----------------------|----9-----9-----9-----9---|----9-----9-----9-----9---|
--7--7----7--7--------|----10----10----10----10--|----10----10----10----10--|
--8--8----8--8--------|----9-----9-----9-----9---|----11----11----11----11--|
--9--9----9--9--------|--------------------------|--------------------------|
----------------------|--------------------------|--------------------------|
----------------------|--------------------------|--------------------------|


  Bm                      D                     A                      
--7--7------7--7--7----|----5----5--5--------|--9-------9---9---------|
--7--7------7--7--7----|----7----7--7--------|--10------10--10--------|
--7--7------7--7--7----|----7----7--7--------|--9-------9---9---------|
-----------------------|---------------------|------------------------|
-----------------------|---------------------|------------------------|
-----------------------|---------------------|------------------------|


  E                     D                       D                   
--7------7--7--------|--5------5--5--------|----5--5--5--5--5------|
--9------9--9--------|--7------7--7--------|----7--7--7--7--7------|
--9------9--9--------|--7------7--7--------|----7--7--7--7--7------|
---------------------|---------------------|-----------------------|
---------------------|---------------------|-----------------------|
---------------------|---------------------|-----------------------|


    F#m                        Bm                     Esus4           E       
----9-----9-----9-----9---|----7----7----7----7--|---------------------------|
----10----10----10----10--|----7----7----7----7--|----10--10--10-10---9------|
----11----11----11----11--|----7----7----7----7--|----9---9---9--9----9------|
--------------------------|----------------------|----9---9---9--9----9------|
--------------------------|----------------------|---------------------------|
--------------------------|----------------------|---------------------------|


    Esus4           E           F#m                        Bm                 
---------------------------|----9-----9-----9-----9---|----7----7----7----7--|
----10--10--10-10---9------|----10----10----10----10--|----7----7----7----7--|
----9---9---9--9----9------|----11----11----11----11--|----7----7----7----7--|
----9---9---9--9----9------|--------------------------|----------------------|
---------------------------|--------------------------|----------------------|
---------------------------|--------------------------|----------------------|


    Esus4           E           Esus4           E       
---------------------------|---------------------------|
----10--10--10-10---9------|----10--10--10-10---9------|
----9---9---9--9----9------|----9---9---9--9----9------|
----9---9---9--9----9------|----9---9---9--9----9------|
---------------------------|---------------------------|
---------------------------|---------------------------|


  A5                         Bm7                      
--------------------------|--------------------------|
--------------------------|--------------------------|
--------------------------|--------------------------|
--7--7--7--7--7--7--7--7--|--7--7--7--7--7--7--7--7--|
--7--7--7--7--7--7--7--7--|--9--9--9--9--9--9--9--9--|
--5--5--5--5--5--5--5--5--|--7--7--7--7--7--7--7--7--|


  C#m7                               D                        
----------------------------------|--5--5--5--5--5--5--5--5--|
----------------------------------|--7--7--7--7--7--7--7--7--|
----------------------------------|--7--7--7--7--7--7--7--7--|
--9---9---9---9---9---9---9---9---|--------------------------|
--11--11--11--11--11--11--11--11--|--------------------------|
--9---9---9---9---9---9---9---9---|--------------------------|


  Am7                     F#m                   E           Esus4     
--5~---------------|------2----2--2--2--2--|-------------------------|
--8~---------------|------2----2--2--2--2--|----9--9--9-9---10-------|
--5----------------|------2----2--2--2--2--|----9--9--9-9---9--------|
--7----------------|-----------------------|----9--9--9-9---9--------|
--7----------------|-----------------------|-------------------------|
--5~---------------|-----------------------|----------------------0--|


  A5                       C5                       G5                  
------------------------|------------------------|---------------------|
------------------------|------------------------|---------------------|
------------------------|------------------------|---------------------|
--7---------7p-5-----5--|-----------------5h7-5--|----------------5----|
--7------7--------7-----|-----------5--7---------|----------5--7-------|
--5---------------------|----8-------------------|---------------------|


    F5        G5         A5                       C5                     
----------------------|------------------------|------------------------|
----------------------|------------------------|------------------------|
----------------------|------------------------|------------------------|
----3----3----5-------|--7---------7p-5-----5--|-----------------5h7-5--|
----3----3----5-------|--7------7--------7-----|-----------5--7---------|
----1----1----3----0--|--5---------------------|----8-------------------|


  G5                      F5        G5         A     A6 A5       A6 A5  
---------------------|----------------------|--5--5--5--5--5--5--5--5--|
---------------------|----------------------|--5--5--7--5--5--5--7--5--|
---------------------|----------------------|--6--6--6--6--6--6--6--6--|
----------------5----|----3----3----5-------|--7--7--7--7--7--7--7--7--|
----------5--7-------|----3----3----5-------|--------------------------|
---------------------|----1----1----3----0--|--------------------------|

[ Tab from: http://www.guitartabs.cc/tabs/e/elton_john/funeral_for_a_friend_tab_ver_3.html ]
  A     A6 A5       A6 A5    E                                             
--5--5--5--5--5--5--5--5--|--7--7------7--7------|--7--7------------------|
--5--5--7--5--5--5--7--5--|--9--9------9--9------|--9--9------9--9-9-9----|
--6--6--6--6--6--6--6--6--|--9--9------9--9------|--9--9------9--9-9-9----|
--7--7--7--7--7--7--7--7--|----------------------|------------9--9-9-9----|
--------------------------|----------------------|------------------------|
--------------------------|----------------------|------------------------|


    A                          D                    Bm                   
----9-----9-----9-----9---|----5----5----5----5--|----------------------|
----10----10----10----10--|----7----7----7----7--|----7----7----7----7--|
----9-----9-----9-----9---|----7----7----7----7--|----7----7----7----7--|
--------------------------|----------------------|----9----9----9----9--|
--------------------------|----------------------|----------------------|
--------------------------|----------------------|----------------------|


  B                      A                          F#m                  
----------------------|----9-----9-----9-----9---|----2----2----2----2--|
--7--7----7--7--------|----10----10----10----10--|----2----2----2----2--|
--8--8----8--8--------|----9-----9-----9-----9---|----2----2----2----2--|
--9--9----9--9--------|--------------------------|----------------------|
----------------------|--------------------------|----------------------|
----------------------|--------------------------|----------------------|


  Bm                      D                     A                      
--7--7------7--7--7----|----5----5--5--------|--9-------9---9---------|
--7--7------7--7--7----|----7----7--7--------|--10------10--10--------|
--7--7------7--7--7----|----7----7--7--------|--9-------9---9---------|
-----------------------|---------------------|------------------------|
-----------------------|---------------------|------------------------|
-----------------------|---------------------|------------------------|


  E                     D                       D                   
--7------7--7--------|--5------5--5--------|----5--5--5--5--5------|
--9------9--9--------|--7------7--7--------|----7--7--7--7--7------|
--9------9--9--------|--7------7--7--------|----7--7--7--7--7------|
---------------------|---------------------|-----------------------|
---------------------|---------------------|-----------------------|
---------------------|---------------------|-----------------------|


    F#m                        Bm                     Esus4           E       
----9-----9-----9-----9---|----7----7----7----7--|---------------------------|
----10----10----10----10--|----7----7----7----7--|----10--10--10-10---9------|
----11----11----11----11--|----7----7----7----7--|----9---9---9--9----9------|
--------------------------|----------------------|----9---9---9--9----9------|
--------------------------|----------------------|---------------------------|
--------------------------|----------------------|---------------------------|


    Esus4           E           F#m                        Bm                 
---------------------------|----9-----9-----9-----9---|----7----7----7----7--|
----10--10--10-10---9------|----10----10----10----10--|----7----7----7----7--|
----9---9---9--9----9------|----11----11----11----11--|----7----7----7----7--|
----9---9---9--9----9------|--------------------------|----------------------|
---------------------------|--------------------------|----------------------|
---------------------------|--------------------------|----------------------|


    Esus4           E           Esus4           E       
---------------------------|---------------------------|
----10--10--10-10---9------|----10--10--10-10---9------|
----9---9---9--9----9------|----9---9---9--9----9------|
----9---9---9--9----9------|----9---9---9--9----9------|
---------------------------|---------------------------|
---------------------------|---------------------------|


  A5                         Bm7                      
--------------------------|--------------------------|
--------------------------|--------------------------|
--------------------------|--------------------------|
--7--7--7--7--7--7--7--7--|--7--7--7--7--7--7--7--7--|
--7--7--7--7--7--7--7--7--|--9--9--9--9--9--9--9--9--|
--5--5--5--5--5--5--5--5--|--7--7--7--7--7--7--7--7--|


  C#m7                               D                        
----------------------------------|--5--5--5--5--5--5--5--5--|
----------------------------------|--7--7--7--7--7--7--7--7--|
----------------------------------|--7--7--7--7--7--7--7--7--|
--9---9---9---9---9---9---9---9---|--------------------------|
--11--11--11--11--11--11--11--11--|--------------------------|
--9---9---9---9---9---9---9---9---|--------------------------|


  Am7                     F#m                        E           Esus4     
--5~---------------|------9-----9---9---9---9---|-------------------------|
--8~---------------|------10----10--10--10--10--|----9--9--9-9---10-------|
--5----------------|------11----11--11--11--11--|----9--9--9-9---9--------|
--7----------------|----------------------------|----9--9--9-9---9--------|
--7----------------|----------------------------|-------------------------|
--5~---------------|----------------------------|----------------------0--|


  A5                       C5                       G5                  
------------------------|------------------------|---------------------|
------------------------|------------------------|---------------------|
------------------------|------------------------|---------------------|
--7---------7p-5-----5--|-----------------5h7-5--|----------------5----|
--7------7--------7-----|-----------5--7---------|----------5--7-------|
--5---------------------|----8-------------------|---------------------|


    F5        G5         A5                       C5                     
----------------------|------------------------|------------------------|
----------------------|------------------------|------------------------|
----------------------|------------------------|------------------------|
----3----3----5-------|--7---------7p-5-----5--|-----------------5h7-5--|
----3----3----5-------|--7------7--------7-----|-----------5--7---------|
----1----1----3----0--|--5---------------------|----8-------------------|


  G5                      F5        G5         A5                
---------------------|----------------------|-------------------|
---------------------|----------------------|-------------------|
---------------------|----------------------|-------------------|
----------------5----|----3----3----5-------|--7----------------|
----------5--7-------|----3----3----5-------|--7----------------|
---------------------|----1----1----3----0--|--5----------------|


                                                                            
------------------|------------------|------------------|------------------|
------------------|------------------|------------------|------------------|
------------------|------------------|------------------|------------------|
------------------|------------------|------------------|------------------|
------------------|------------------|------------------|------------------|
------------------|------------------|------------------|------------------|


                                                                            
------------------|------------------|------------------|------------------|
------------------|------------------|------------------|------------------|
------------------|------------------|------------------|------------------|
------------------|------------------|------------------|------------------|
------------------|------------------|------------------|------------------|
------------------|------------------|------------------|------------------|


                                                                            
------------------|------------------|------------------|------------------|
------------------|------------------|------------------|------------------|
------------------|------------------|------------------|------------------|
------------------|------------------|------------------|------------------|
------------------|------------------|------------------|------------------|
------------------|------------------|------------------|------------------|


                                                                            
------------------|------------------|------------------|------------------|
------------------|------------------|------------------|------------------|
------------------|------------------|------------------|------------------|
------------------|------------------|------------------|------------------|
------------------|------------------|------------------|------------------|
------------------|------------------|------------------|------------------|


                                                                            
------------------|------------------|------------------|------------------|
------------------|------------------|------------------|------------------|
------------------|------------------|------------------|------------------|
------------------|------------------|------------------|------------------|
------------------|------------------|------------------|------------------|
------------------|------------------|------------------|------------------|


                                                            A5                 
------------------|------------------|-------------------|--------------------|
------------------|------------------|-------------------|--------------------|
------------------|------------------|-------------------|--------------------|
------------------|------------------|-------------------|--7-----------------|
------------------|------------------|-------------------|--7-----------------|
------------------|------------------|----------------0--|--5--------------0--|


  C5                     G5                                          
----------------------|--------------------|------------------------|
----------------------|--------------------|------------------------|
----------------------|--10b---------------|----12r---12r---12r-----|
--10------------------|--10b---------------|------------------------|
--10--------------10--|--------------------|------------------------|
--8-------------------|--------------------|------------------------|


                                                      
--------------------------|--------------------------|
----------------------13b-|----13----------13--------|
--12b-------12r-----------|-------------------14-12--|
------------------14------|--------------------------|
--------------------------|--------------------------|
--------------------------|--------------------------|


                                                                               
----------------------------|----------------------|--------------------------|
----------------------------|----------------------|----------------------13b-|
--12r-------14p-12----------|----------------------|--12b-------12r-----------|
--------------------14--12b-|------12--------------|------------------14------|
----------------------------|----------------13b---|--------------------------|
----------------------------|----------------------|--------------------------|


                                                        
--------------------------|----------------------------|
----13----------13--------|----------------------------|
-------------------14-12--|--12r-------14p-12----------|
--------------------------|--------------------14--12b-|
--------------------------|----------------------------|
--------------------------|----------------------------|


                                                          
--13b---13b-------13b---|--------------------------------|
------------------------|----------------------------13b-|
------------------------|--12b-12b-12b-12b-12r-----------|
------------------------|------------------------14------|
------------------------|--------------------------------|
------------------------|--------------------------------|


                                                              
------------------------------|------------------------------|
----13b-13b-13b-13r-------13b-|----13b-13b-13b-13r-----------|
----------------------14------|----------------------12b-12b-|
------------------------------|------------------------------|
------------------------------|------------------------------|
------------------------------|------------------------------|


                             F#m                        Bm                 
--13b---13b-------13b---|----9-----9-----9-----9---|----7----7----7----7--|
------------------------|----10----10----10----10--|----7----7----7----7--|
------------------------|----11----11----11----11--|----7----7----7----7--|
------------------------|--------------------------|----------------------|
------------------------|--------------------------|----------------------|
------------------------|--------------------------|----------------------|


    Esus4           E           Esus4           E       
---------------------------|---------------------------|
----10--10--10-10---9------|----10--10--10-10---9------|
----9---9---9--9----9------|----9---9---9--9----9------|
----9---9---9--9----9------|----9---9---9--9----9------|
---------------------------|---------------------------|
---------------------------|---------------------------|


    F#m                        Bm                     Esus4           E       
----9-----9-----9-----9---|----7----7----7----7--|---------------------------|
----10----10----10----10--|----7----7----7----7--|----10--10--10-10---9------|
----11----11----11----11--|----7----7----7----7--|----9---9---9--9----9------|
--------------------------|----------------------|----9---9---9--9----9------|
--------------------------|----------------------|---------------------------|
--------------------------|----------------------|---------------------------|


    Esus4           E         A5                       
---------------------------|--------------------------|
----10--10--10-10---9------|--------------------------|
----9---9---9--9----9------|--------------------------|
----9---9---9--9----9------|--7--7--7--7--7--7--7--7--|
---------------------------|--7--7--7--7--7--7--7--7--|
---------------------------|--5--5--5--5--5--5--5--5--|


  Bm7                        C#m7                             
--------------------------|----------------------------------|
--------------------------|----------------------------------|
--------------------------|----------------------------------|
--7--7--7--7--7--7--7--7--|--9---9---9---9---9---9---9---9---|
--9--9--9--9--9--9--9--9--|--11--11--11--11--11--11--11--11--|
--7--7--7--7--7--7--7--7--|--9---9---9---9---9---9---9---9---|


  D                          Am7                     F#m               
--5--5--5--5--5--5--5--5--|--5~---------------|------2----2--2--2--2--|
--7--7--7--7--7--7--7--7--|--8~---------------|------2----2--2--2--2--|
--7--7--7--7--7--7--7--7--|--5----------------|------2----2--2--2--2--|
--------------------------|--5----------------|-----------------------|
--------------------------|--7----------------|-----------------------|
--------------------------|--5~---------------|-----------------------|


    E           Esus4       A5                       C5                     
-------------------------|------------------------|------------------------|
----9--9--9-9---10-------|------------------------|------------------------|
----9--9--9-9---9--------|------------------------|------------------------|
----9--9--9-9---9--------|--7---------7p-5-----5--|-----------------5h7-5--|
-------------------------|--7------7--------7-----|-----------5--7---------|
----------------------0--|--5---------------------|----8-------------------|


  G5                      F5        G5         A5                     
---------------------|----------------------|------------------------|
---------------------|----------------------|------------------------|
---------------------|----------------------|------------------------|
----------------5----|----3----3----5-------|--7---------7p-5-----5--|
----------5--7-------|----3----3----5-------|--7------7--------7-----|
---------------------|----1----1----3----0--|--5---------------------|


  C5                       G5                      F5        G5       
------------------------|---------------------|----------------------|
------------------------|---------------------|----------------------|
------------------------|---------------------|----------------------|
-----------------5h7-5--|----------------5----|----3----3----5-------|
-----------5--7---------|----------5--7-------|----3----3----5-------|
----8-------------------|---------------------|----1----1----3----0--|


    F#m                        Bm                     Esus4           E       
----9-----9-----9-----9---|----7----7----7----7--|---------------------------|
----10----10----10----10--|----7----7----7----7--|----10--10--10-10---9------|
----11----11----11----11--|----7----7----7----7--|----9---9---9--9----9------|
--------------------------|----------------------|----9---9---9--9----9------|
--------------------------|----------------------|---------------------------|
--------------------------|----------------------|---------------------------|


    Esus4           E           F#m                        Bm                 
---------------------------|----9-----9-----9-----9---|----7----7----7----7--|
----10--10--10-10---9------|----10----10----10----10--|----7----7----7----7--|
----9---9---9--9----9------|----11----11----11----11--|----7----7----7----7--|
----9---9---9--9----9------|--------------------------|----------------------|
---------------------------|--------------------------|----------------------|
---------------------------|--------------------------|----------------------|


    Esus4           E           Esus4           E       
---------------------------|---------------------------|
----10--10--10-10---9------|----10--10--10-10---9------|
----9---9---9--9----9------|----9---9---9--9----9------|
----9---9---9--9----9------|----9---9---9--9----9------|
---------------------------|---------------------------|
---------------------------|---------------------------|


  A5                         Bm7                      
--------------------------|--------------------------|
--------------------------|--------------------------|
--------------------------|--------------------------|
--7--7--7--7--7--7--7--7--|--7--7--7--7--7--7--7--7--|
--7--7--7--7--7--7--7--7--|--9--9--9--9--9--9--9--9--|
--5--5--5--5--5--5--5--5--|--7--7--7--7--7--7--7--7--|


  C#m7                               D                        
----------------------------------|--5--5--5--5--5--5--5--5--|
----------------------------------|--7--7--7--7--7--7--7--7--|
----------------------------------|--7--7--7--7--7--7--7--7--|
--9---9---9---9---9---9---9---9---|--------------------------|
--11--11--11--11--11--11--11--11--|--------------------------|
--9---9---9---9---9---9---9---9---|--------------------------|


  Am7                     F#m                   E           Esus4     
--5~---------------|------2----2--2--2--2--|-------------------------|
--8~---------------|------2----2--2--2--2--|----9--9--9-9---10-------|
--5----------------|------2----2--2--2--2--|----9--9--9-9---9--------|
--7----------------|-----------------------|----9--9--9-9---9--------|
--7----------------|-----------------------|-------------------------|
--5~---------------|-----------------------|----------------------0--|


  A5                       C5                       G5                  
------------------------|------------------------|---------------------|
------------------------|------------------------|---------------------|
------------------------|------------------------|---------------------|
--7---------7p-5-----5--|-----------------5h7-5--|----------------5----|
--7------7--------7-----|-----------5--7---------|----------5--7-------|
--5---------------------|----8-------------------|---------------------|


    F5        G5         A5                       C5                     
----------------------|------------------------|------------------------|
----------------------|------------------------|------------------------|
----------------------|------------------------|------------------------|
----3----3----5-------|--7---------7p-5-----5--|-----------------5h7-5--|
----3----3----5-------|--7------7--------7-----|-----------5--7---------|
----1----1----3----0--|--5---------------------|----8-------------------|


  G5                      F5        G5        A5                 
---------------------|---------------------|--------------------|
---------------------|---------------------|--------------------|
---------------------|---------------------|--7~-------------7~-|
----------------5----|----3----3----5------|--------------------|
----------5--7-------|----3----3----5------|--------------------|
---------------------|----1----1----3------|--------------------|


  C5                   G5                        F5         G5       
--------------------|----------------------|------------------------|
--------------------|----------------------|-----------8b---8b---8r-|
--7~-------------7~-|--7~---------7b-7p-5h-|--7p-5------------------|
--------------------|----------------------|--------7---------------|
--------------------|----------------------|------------------------|
--------------------|----------------------|------------------------|


  A5                   C5                   G5                 
--------------------|--------------------|--------------------|
--------8r-------8r-|--------8r-------8r-|--------8r-------8r-|
--------------------|--------------------|--------------------|
--------------------|--------------------|--------------------|
--------------------|--------------------|--------------------|
--------------------|--------------------|--------------------|


  F5         G5        A5                   C5                 
--------------------|--------8r----------|--------8r----------|
--------8r-------8r-|-----------------8r-|-----------------8r-|
--------------------|--------------------|--------------------|
--------------------|--------------------|--------------------|
--------------------|--------------------|--------------------|
--------------------|--------------------|--------------------|


  G5                   F5         G5         A5                 
--------8r-------8r-|--------8r-------10b-|----------------10b-|
--------------------|---------------------|--------------------|
--------------------|---------------------|--------------------|
--------------------|---------------------|--------------------|
--------------------|---------------------|--------------------|
--------------------|---------------------|--------------------|


  C5                   G5                           F5          G5             
----------------15b-|------15--12--12----12--15b-|------15--12--12----12--15b-|
--------------------|----------------------------|----------------------------|
--------------------|----------------------------|----------------------------|
--------------------|----------------------------|----------------------------|
--------------------|----------------------------|----------------------------|
--------------------|----------------------------|----------------------------|


  A5                   C5                   G5                         
----------------15b-|----------------20b-|------20--17--17----15--20b-|
--------------------|--------------------|----------------------------|
--------------------|--------------------|----------------------------|
--------------------|--------------------|----------------------------|
--------------------|--------------------|----------------------------|
--------------------|--------------------|----------------------------|


  F5          G5                   
------20--17--17----15--20b-|----||
----------------------------|----||
----------------------------|----||
----------------------------|----||
----------------------------|----||
----------------------------|----||
Comments