Elton John - Dark Diamond Chords & Tabs

 

Dark Diamond Chords & Tabs

Elton John Chords & Tabs

Version: 1 Type: Bass Tab 0 ratings
1 star 2 stars 3 stars 4 stars 5 stars
comments

Dark Diamond Bass Tab

Elton John Band -  'Dark Diamond' from SFTWC album. Groovy little tune.
I like playing this one. Hope you can understand my tabbing :) Enjoy...


INTRO:
G|-----|-----|-----|----------|
D|-----|-----|-----|----------|   X2
A|-1-1-|-----|-----|----------|
E|-----|-2-2-|-4-4-|-4-6-9-11-|

WITH LYRICS:                                          CODA:
G|-----|-------|-----|-----|-----|-----|-----|----------|-----|-------|-----|
D|-----|-------|-----|-----|-----|-----|-----|----------|-----|-------|-----|
A|-1-1-|-------|-----|-4-4-|-----|-1-1-|-----|----------|-1-1-|-------|-----|
E|-----|-11-11-|-4-4-|-----|-2-2-|-----|-4-4-|-4-6-9-11-|-----|-11-11-|-4-4-|
[ Tab from: http://www.guitartabs.cc/tabs/e/elton_john/dark_diamond_btab.html ]
                            CHORUS:   
G|-----|-----|-------|-----|-----|-----|-----|-----|-----|-----|-----|------|
D|-----|-----|-------|-----|-----|-----|-----|-----|-----|-----|-----|------|
A|-4-4-|-----|-------|-----|-----|-4-4-|-4-4-|-----|-----|-----|-----|------|
E|-----|-2-2-|-11-11-|-1-1-|-1-1-|-----|-----|-2-2-|-2-2-|-1-1-|-2-2-|-11-11|


G|-----|-----|-----|-----|-----|-----|-----|-------|-----|-----|-----|-----|
D|-----|-----|-----|-----|-----|-----|-----|-------|-----|-----|-----|-----|
A|-----|-4-4-|-4-4-|-----|-----|-----|-----|-------|-----|-4-4-|-1-1-|-----|
E|-4-4-|-----|-----|-2-2-|-2-2-|-1-1-|-2-2-|-11-11-|-4-4-|-----|-----|-2-2-|


G|-----|-----|-----|-------|-----|
D|-----|-----|-----|-------|-----|     REPEAT ALL FROM 'WITH LYRICS', USING 
A|-----|-1-1-|-----|-------|-----|       4,6,9,11 bar once at end for CODA
E|-4-4-|-----|-2-2-|-11-11-|-4-4-|


OUTTRO:
G|-----|-----|-----|-----|-----|-----|-------|-----|
D|-----|-----|-----|-----|-----|-----|-------|-----|  REPEAT 'TIL FADE
A|-4-4-|-1-1-|-----|-----|-1-1-|-----|-------|-----|
E|-----|-----|-2-2-|-4-4-|-----|-2-2-|-11-11-|-4-4-|
Comments