Elton John - Crocodile Rock Chords & Tabs

 

Crocodile Rock Chords & Tabs

Elton John Chords & Tabs

Version: 1 Type: Bass Tab 0 ratings
1 star 2 stars 3 stars 4 stars 5 stars
comments

Crocodile Rock Bass Tab

Elton John - Crocodile Rock
Tabbed By: Skater
EMail: dead_skater666@hotmail.com


O.K. Now this song is maybe tuff but it
                  sounds great when you have it right!


Intro(x1)
G:----------------------------------------------------||
D:------------------------------5-5---5-5-------------||
A:---5-5---5-5---2-2---2-2---3-3---3-3----3--3---3-3-3||
E:3-3---3-3---0-0---0-0-----------------3--3---3------||

Riff(x2)
G:0-0-------0--0----------------------------------------------------------------------||
D:----2-0-2------2-0-2--------------------------------------------0-0-------0--0------||
A:----------------------2-2---2--2-2---2----3-3-0---0-3-3-0---0-------2-0-2------2-0-2||
E:--------------------------2---2----2---2--------3---------3-------------------------||

[ Tab from: http://www.guitartabs.cc/tabs/e/elton_john/crocodile_rock_btab.html ]
chorus(x1)
G:--------------------------------------------------------------------------0-0-------0--0-0-0-0-------------------------------------------------------------------------------------------||
D:2-2-0-2-0-2-0-2-0-------------2-2-4-2--------2-2-4-2-0-0-------0--0-----------2-0-2------------4-4-3-3-0-2-2-2-0-2-2-2-0-2-2-2-0-2-2-2-----------------0-0-------0--0--------------------||
A:------------------2-1-0-0-3-4--------0-0-3-4-------------2-0-2------2-0-2--------------------------------------------------------------0-2-3-4-0-2-3-4-----2-0-2------2-0-2--3---3---3---||
E:-------------------------------------------------------------------------------------------------------------------------------------------------------------------------------3---3---3-||

Then restart to the intro... For the end, keep on doing the intro
Comments