Elliott Smith - No Name 3 Chords & Tabs

 

No Name 3 Chords & Tabs

Elliott Smith Chords & Tabs

Version: 1 Type: Tab 0 ratings
1 star 2 stars 3 stars 4 stars 5 stars
comments

No Name 3 Tab

#----------------------------------PLEASE NOTE--------------------------------#
#This file is the author's own work and represents their interpretation of the#
#song. You may only use this file for private study, scholarship, or research.#
#-----------------------------------------------------------------------------#

Date: Wed, 17 Jun 1998 15:45:52 EDT
Subject: s/smith_elliott/no_name_3.crd
From: "Jin-Woo Park" 

"No Name#3"
written by Elliott Smith
song (C) 1994 Cavity Search Records
from the album Roman Candle

guitar transcription by Jin-Woo Park  
________________________________________________________________

Tuning is normal

Note:  When playing some of the chords, mute out the
strings with your index finger(second finger). The strumming is basically easy
when you get the hang of the song.

[Intro] Strum  (*means muted)

---9---9-9---9-9-9-9-------12-12-12--12---12-12-12-12------------|
---*---*-*---*-*-*-*--------*--*--*--*-----*--*--*--*------------|
---*---*-*---*-*-*-*--------*--*--*--*-----*--*--*--*------------|
---7---7-7---7-7-7-7-------11-11-11-11----11-11-11-11------------|
---7---7-7---7-7-7-7-------11-11-11-11----11-11-11-11------------|
---5---5-5---5-5-5-5--------9--9--9--9-----9--9--9--9------------|


---9-9-9-9---9-9-9-9-------12-12-12-12----12-12-12-12------------|
---*-*-*-*---*-*-*-*--------*--*--*--*-----*--*--*--*------------|
---*-*-*-*---*-*-*-*--------*--*--*--*-----*--*--*--*------------|
---7-7-7-7---7-7-7-7-------11-11-11-11----11-11-11-11------------| x3
---7-7-7-7---7-7-7-7-------11-11-11-11----11-11-11-11------------|
---5-5-5-5---5-5-5-5--------9--9--9--9-----9--9--9--9------------|


--10-10-10-10---10-10-10-10---------9-9-9-9---9-9-9-9------------|
---*--*--*--*----*--*--*--*---------*-*-*-*---*-*-*-*------------|
---*--*--*--*----*--*--*--*---------*-*-*-*---*-*-*-*------------|
---9--9--9--9----9--9--9--9---------7-7-7-7---7-7-7-7------------|
---9--9--9--9----9--9--9--9---------7-7-7-7---7-7-7-7------------|
---7--7--7--7----7--7--7--7---------5-5-5-5---5-5-5-5------------|


---7-7-7-7--9-9-9-9------9-9-9-9--9-9-9-9------------------------|
---7-7-7-7--9-9-9-9------*-*-*-*--*-*-*-*------------------------|
---7-7-7-7--9-9-9-9------*-*-*-*--*-*-*-*------------------------|
---*-*-*-*--*-*-*-*------7-7-7-7--7-7-7-7------------------------|
---5-5-5-5--7-7-7-7------7-7-7-7--7-7-7-7------------------------|
---5-5-5-5--7-7-7-7------5-5-5-5--5-5-5-5------------------------|


---9-9-9-9---9-9-9-9-------12-12-12-12----12-12-12-12------------|
---*-*-*-*---*-*-*-*--------*--*--*--*-----*--*--*--*------------|
---*-*-*-*---*-*-*-*--------*--*--*--*-----*--*--*--*------------|
---7-7-7-7---7-7-7-7-------11-11-11-11----11-11-11-11------------| x2
---7-7-7-7---7-7-7-7-------11-11-11-11----11-11-11-11------------|
---5-5-5-5---5-5-5-5--------9--9--9--9-----9--9--9--9------------|

[ Tab from: http://www.guitartabs.cc/tabs/e/elliott_smith/no_name_3_tab.html ]
--10-10-10-10---10-10-10-10---------9-9-9-9---9-9-9-9------------|
---*--*--*--*----*--*--*--*---------*-*-*-*---*-*-*-*------------|
---*--*--*--*----*--*--*--*---------*-*-*-*---*-*-*-*------------|
---9--9--9--9----9--9--9--9---------7-7-7-7---7-7-7-7------------|
---9--9--9--9----9--9--9--9---------7-7-7-7---7-7-7-7------------|
---7--7--7--7----7--7--7--7---------5-5-5-5---5-5-5-5------------|


---7-7-7-7--9-9-9-9------9-9-9-9--9-9-9-9------------------------|
---7-7-7-7--9-9-9-9------*-*-*-*--*-*-*-*------------------------|
---7-7-7-7--9-9-9-9------*-*-*-*--*-*-*-*------------------------|
---*-*-*-*--*-*-*-*------7-7-7-7--7-7-7-7------------------------|
---5-5-5-5--7-7-7-7------7-7-7-7--7-7-7-7------------------------|
---5-5-5-5--7-7-7-7------5-5-5-5--5-5-5-5-7----------------------|


---3-3-3-3--3-3-3-3------5-5-5-5--5-5-5-5-------|
---5-5-5-5--5-5-5-5------5-5-5-5--5-5-5-5-------|
---5-5-5-5--5-5-5-5------6-6-6-6--6-6-6-6-------| x3
---5-5-5-5--5-5-5-5------7-7-7-7--7-7-7-7-------|
---3-3-3-3--3-3-3-3------7-7-7-7--7-7-7-7-------|
---3-3-3-3--3-3-3-3------5-5-5-5--5-5-5-5-7-----|


---3-3-3-3--3-3-3-3--3-3-3-3--3-3-3-3------|
---5-5-5-5--5-5-5-5--5-5-5-5--5-5-5-5------|
---5-5-5-5--5-5-5-5--5-5-5-5--5-5-5-5------|
---5-5-5-5--5-5-5-5--5-5-5-5--5-5-5-5------|
---3-3-3-3--3-3-3-3--3-3-3-3--2-2-2-2------|
---3-3-3-3--3-3-3-3--3-3-3-3--3-3-3-3------|


(It's basically the same thing over and over until finally
you get to this)

---9-9-9-9---9-9-9-9-------12-12-12-12----12-12-12-12------------|
---*-*-*-*---*-*-*-*--------*--*--*--*-----*--*--*--*------------|
---*-*-*-*---*-*-*-*--------*--*--*--*-----*--*--*--*------------|
---7-7-7-7---7-7-7-7-------11-11-11-11----11-11-11-11------------| x2
---7-7-7-7---7-7-7-7-------11-11-11-11----11-11-11-11------------|
---5-5-5-5---5-5-5-5--------9--9--9--9-----9--9--9--9------------|


--10-10-10-10---10-10-10-10---------9-9-9-9---9-9-9-9------------|
---*--*--*--*----*--*--*--*---------*-*-*-*---*-*-*-*------------|
---*--*--*--*----*--*--*--*---------*-*-*-*---*-*-*-*------------|
---9--9--9--9----9--9--9--9---------7-7-7-7---7-7-7-7------------|
---9--9--9--9----9--9--9--9---------7-7-7-7---7-7-7-7------------|
---7--7--7--7----7--7--7--7---------5-5-5-5---5-5-5-5------------|


---7-7-7-7--9-9-9-9------2-2-2-2--5-5-5-5-------------|
---7-7-7-7--9-9-9-9------2-2-2-2--5-5-5-5-------------|
---7-7-7-7--9-9-9-9------2-2-2-2--6-6-6-6-------------|
---*-*-*-*--*-*-*-*------4-4-4-4--7-7-7-7-------------|
---5-5-5-5--7-7-7-7------4-4-4-4--7-7-7-7-------------|
---5-5-5-5--7-7-7-7------2-2-2-2--5-5-5-5-------------|


---7-7-7-7--9-9-9-9------5----------|
---7-7-7-7--9-9-9-9------5----------|
---7-7-7-7--9-9-9-9------6----------|
---*-*-*-*--*-*-*-*------7----------|   (Pick last chord slowly)
---5-5-5-5--7-7-7-7------7----------|
---5-5-5-5--7-7-7-7------5----------|


	Lyrics
We arrived too late
our mouths were opening
I turned off the light
So come on night

you're a witness you
you've seen me interrupt
a good old fashioned fight
so come on night

everyone is gone
home to oblivion
home to oblivion
home to oblivion

watched the dying day
blushing in the sky
everyone is uptight
so come on night

everyone is gone
home to oblivion
home to oblivion
home to oblivion

I know we're not
illegitimate
in out hearing
so come on
so come on night


	Note: I am coming out with more Elliott Smith songs.  Keep posted for
songs condor ave. and No Name#2. If you know any Elliot Smith songs that aren't
posted, e-mail me at  Thanks!
Comments