Elephant Gun - Cataract Chords & Tabs

 

Cataract Chords & Tabs

Elephant Gun Chords & Tabs

Version: 2 Type: Tab 0 ratings
1 star 2 stars 3 stars 4 stars 5 stars
comments

Cataract Tab

   
Cataract
E L E P H A N T   G U N
Tabbed By Aaron Bridgeman (rokken@sicness.net)

http://bogans.arecool.net

TUNING: Down 1 step (D G C F A D)

Listen to song for timing

INTRO: (heavy delay)
d|---------------------------|
A|---------------------------|
F|---3-----5-----5-----------|
C|-5---5-3---3-2---2-3-2-----|
G|-----------------------3-5-|
D|---------------------------|

INTRO 2:
d|---6-----8-----8-----------|
A|-8---8-6---6-5---5-6-5-----|
F|-----------------------5-7-|
C|---------------------------|
G|---------------------------|
D|---------------------------|
[ Tab from: http://www.guitartabs.cc/tabs/e/elephant_gun/cataract_tab_ver_2.html ]
VERSE: (revolves around these chords. play how you like.)
d|-------------|
A|-------------|
F|-------------|
C|-5--3--8--10-|
G|-5--3--8--10-|
D|-3--1--6--8--|

CHORUS:
d|---------------------------------------------|
A|---------------------------------------------|
F|---------------------------------------------|
C|-5-5---5----10-10--10---8-8-8-8--10-10-10-10-|
G|-5-5---5----10-10--10---8-8-8-8--10-10-10-10-|
D|-3-3---3----8--8---8----6-6-6-6--8--8--8--8--|

POST CHORUS:
d|----------------|
A|----------------|
F|----------------|
C|-5---3---8---10-|
G|-5---3---8---10-|
D|-3---1---6---8--|
use those chords

LEAD FILL 1:
d|----------------------|
A|----------------------|
F|-12--10--10-9-9-10-12-|
C|----------------------|
G|----------------------|
D|----------------------|

MORE LEAD BITS TO COME LATER (probably)
Comments