Elemeno P - Everydays A Saturday Chords & Tabs

 

Everydays A Saturday Chords & Tabs

Elemeno P Chords & Tabs

Version: 1 Type: Tab 0 ratings
1 star 2 stars 3 stars 4 stars 5 stars
comments

Everydays A Saturday Tab

it's pretty basic but theres no other tab of everyday's a saturday on the net:
[ Tab from: http://www.guitartabs.cc/tabs/e/elemeno_p/everydays_a_saturday_tab.html ]
--------------------------------------------------------------------------
--------------------------------------------------------------------------
-------7-7-7-7-5-5-7-7-7-7-------7-7-7-7-5-5-7-7-7-7----------------------
---5-5-7-7-7-7-5-5-7-7-7-7---5-5-7-7-7-7-5-5-7-7-7-7----------------------
---5-5-5-5-5-5-3-3-5-5-5-5---5-5-5-5-5-5-3-3-5-5-5-5----------------------
---3-3-----------------------3-3------------------------------------------

---5-5-7-7-7-7-5-5-7-7-7-7-4-4-4-7-5-5-5-5-5-7----------------------------
---5-5-7-7-7-7-5-5-7-7-7-7-4-4-4-7-5-5-5-5-5-7----------------------------
---5-5-7-7-7-7-5-5-7-7-7-7-4-4-4-7-5-5-5-5-5-7----------------------------
---5-5-7-7-7-7-5-5-7-7-7-7-4-4-4-7-5-5-5-5-5-7----------------------------
---5-5-5-5-5-5-3-3-5-5-5-5-2-2-2-5-3-3-3-3-3-5----------------------------
---3-3--------------------------------------------------------------------
Comments