Elemeno P - 1157 Chords & Tabs

 

1157 Chords & Tabs

Elemeno P Chords & Tabs

Version: 1 Type: Tab 0 ratings
1 star 2 stars 3 stars 4 stars 5 stars
comments

1157 Tab

   
Tabbed by the slayer/simon manu

Normal tuning e,b,g,D,A,e

No one else has tabbed this yet so hope its ok

Intro
E|----------------------|
B|----------------------|
G|----------------------|
D|-------777-------777--| x3
A|--777--555--444--555--|
E|--555-------222-------|

E|-------------------------|
B|-------------------------|
G|-------------------------|
D|-------777------------2~-|    ~ =hold
A|--777--555--444--222--0~-|  
E|--555-------222--000-----|

No Guitar Just Bass And Vocals

Verse (Bass)
G|------------------------|
D|------------------------|
A|-------5555-------5555--| 
E|--5555-------2222-------|

G|-------------------------|
D|-------------------------|
A|-------5555--------------|
E|--5555-------2222--0000--|

Play 2 Times Then

Verse P.M.
E|--------------------------|
B|--------------------------|
G|--------------------------|
D|--------7777--------7777--| 
A|--7777--5555--4444--5555--|
E|--5555--------2222--------|

P.M.
E|--------------------------|
B|--------------------------|
G|--------------------------|
D|--------7777--------------|
A|--7777--5555--4444--2222--|
E|--5555--------2222--0000--|

Chorus
E|-------------------------|-------------------------|
B|-------------------------|-------------------------|
G|-------------------------|-------------------------|
D|--------7777--------7777-|-------7777--------------| x3
A|--7777--5555--4444--5555-|-7777--5555--4444--2222--|
E|--5555--------2222-------|-5555--------2222--0000--|

Guitar Break
E|---------------------------------------------------|
B|---------------------------------------2-3p2--3/5--|
G|--222---2-4--222---2-4--222---2-4--22--------------|
D|------2----------2----------2----------------------|
A|---------------------------------------------------|
E|---------------------------------------------------|

Bass And Vocals Again
[ Tab from: http://www.guitartabs.cc/tabs/e/elemeno_p/1157_tab.html ]
Guitar bit
E|--5---5---5---5-7-|
B|----5---5---5-----|
G|------------------|
D|------------------| x8
A|------------------|
E|------------------|

Then The Chorus Again

SOLO
E|----------------|
B|----------------|
G|----------------|
D|--2~------2~----|
A|--0~------0~----|
E|----------------|

E|---------------------------------------------------------|
B|---------------------------------------------------------|
G|-----------11----------------11----------------11--------|
D|--11h12h14----14p12-11h12h14----14p12-11h12h14----14p12--|
A|---------------------------------------------------------|
E|---------------------------------------------------------|

E|--------------------------------------------9h10p9-----|
B|--------------------------------------10h12---------12-|
G|-----------11------------------------------------------|
D|--11h12h14----14p12--11h12p11--------------------------|
A|------------------------------12-14--------------------|
E|-------------------------------------------------------|

E|--------9h10p9----------9h10p9-------------------------------------|
B|--10h12--------12-10h12--------12-10h12p10-----9----9----9-10-9----|
G|--------------------------------------------11---11---11--------11-|
D|-------------------------------------------------------------------|
A|-------------------------------------------------------------------|
E|-------------------------------------------------------------------|

Outro
E|-----------------------------------------------------|
B|-----------------------------------------------------|
G|-----------------------------------------------------|
D|--------7777--------7777--------7777--------------2~-|
A|--7777--5555--4444--5555--7777--5555--4444--2222--0~-|
E|--5555--------2222--------5555--------2222--0000-----|

Order: 
Intro         x1
Verse         x2
Chorus        x3
Guitar break  x1
Guiter bit    x8
Chorus        x3
solo          x1
Outro         X4

Hope Yoy Enjoy
Comments