Electric Soft Parade - Empty At The End Chords & Tabs

 

Empty At The End Chords & Tabs

Electric Soft Parade Chords & Tabs

Version: 1 Type: Bass Tab 0 ratings
1 star 2 stars 3 stars 4 stars 5 stars
comments

Empty At The End Bass Tab

   
----------------------------------------------------------------------------
			     EMPTY AT THE END - Electric Soft Parade
----------------------------------------------------------------------------

Tabbed By : Stephen Healy
e-mail: steeeeeve13@hotmail.com

Tuning: Standard E A D G

Intro/Fill (optional)
G|------------------------------------------------------------------------|
D|-5-4-3-2-1--------------------------------------------------------------|
A|-----------5-4-3-2-1----------------------------------------------------|
E|---------------------5-4-3-2-1-0----------------------------------------|

1st verse, into "yeah yeah"
G|----------------------------------------------------------------------|
D|-2-2--2-2-2--2-2-2--2-2-------2-2--2-2-2--2-2-2--2-2-2-0-0------------|
A|------------------------2-2-2------------------------------3-3--3-3-3-|
E|----------------------------------------------------------------------|

G|----------------------------------------------------------------------|
D|---------------------------------------------2-2----------------------|
A|-3-3-3--3-3-3-2-2-0-0--0-0-0--0-0-0--0-0-2-2--------------------------|
E|----------------------------------------------------------------------|
[ Tab from: http://www.guitartabs.cc/tabs/e/electric_soft_parade/empty_at_the_end_btab.html ]
2nd verse into chorus
G|----------------------------------------------------------------------|
D|-2-2--2-2-2--2-2-2--2-2-------2-2--2-2-2--2-2-2--2-2-2-0-0------------|
A|------------------------2-2-2------------------------------3-3--3-3-3-|
E|----------------------------------------------------------------------|

G|----------------------------------------------------------------------|
D|----------------------------------------------------------------------|
A|-3-3-3--3-3-3-2-2-0-0--0-0-0--0-0-0--0-0/12---------------------------|
E|----------------------------------------------------------------------|

Chorus
G|---------22222222-----------------------------------------------------|
D|---------------------------------4-4-42---------2222222222222222------|
A|------------------------22222222-------40-0-0-0-----------------------|
E|-5555555---------444444-----------------------------------------------|

During Solo
G|----------------------------------------------------------------------|x2
D|-22222222222222222222222222222222-------------------------------------|
A|---------------------------------3333333333333333---------------------|
E|-------------------------------------------------5555555555555555-----|

on final chorus where the second note sounds different (usually 2nd fret on G) slide up
to 17th on E instead, thats whats making the slightly different sound. Then slide back
down to 4th and continue as normal

| /  slide up
| \  slide down
| h  hammer-on
| p  pull-off
| ~  vibrato
| +  harmonic
| x  Mute note
============================================================================
Comments