Electric Six - Rock Show Chords & Tabs

 

Rock Show Chords & Tabs

Electric Six Chords & Tabs

Version: 1 Type: Tab 0 ratings
1 star 2 stars 3 stars 4 stars 5 stars
comments

Rock Show Tab

   
-------------------------------------------------------------------------------
			     Rock Show - Electric Six
-------------------------------------------------------------------------------
Tabbed by: Kada
Email: fPuren@adelphia.net

Tuning: Standard


Main part:
e|----------------|------------|
B|----------------|------------|
G|----------------|------------|
D|----------------|------7-5---|
A|--7-7-7---------|--7-7-5-3---|
E|--5-5-5---------|--5-5-------|

e|----------------|------------|
B|----------------|------------|
G|----------------|------------|
D|----------------|------------|
A|--7-7-5--7-7-5--|--7-7-5-7---|
E|--5-5-7--5-5-7--|--5-5-7h5---|                           
            

[ Tab from: http://www.guitartabs.cc/tabs/e/electric_six/rock_show_tab.html ]
Secondary part:
e|--------------------|  *I don't know this part.
B|--------------------|  So that's what I play.
G|--------------------|
D|--x-x-x-x--x-x-x-x--|  
A|--x-x-x-x--x-x-x-x--|
E|--xhxhxhx--xhxhxhx--|    
   {                }*

e|----------------|------------|
B|----------------|------------|
G|----------------|------------|
D|----------------|------------|
A|--7-7-5--7-7-5--|--7-7-5-7---|
E|--5-5-7--5-5-7--|--5-5-7h5---|


This isn't entriely correct, but you can figure it out from this.
Just listen to the song.


| /  slide up
| \  slide down
| h  hammer-on
| p  pull-off
| ~  vibrato
| +  harmonic
| x  Mute note
===============================================================================
Comments