Electric Six - Getting Into The Jam Chords & Tabs

 

Getting Into The Jam Chords & Tabs

Electric Six Chords & Tabs

Version: 1 Type: Tab 0 ratings
1 star 2 stars 3 stars 4 stars 5 stars
comments

Getting Into The Jam Tab

   
Electric 6  - Getting Into The Jam
OK, another Electric 6 song and again theres not a lot to it. 

Intro

e]--------------------
B]--------------------
G]--------------------
D]--/9-9-9-9-9--2-2-2-
A]--/9-9-9-9-9--2-2-2-
E]--/7-7-7-7-7--0-0-0-

This is repeated but without the slide.

Verse

Rhythm
[ Tab from: http://www.guitartabs.cc/tabs/e/electric_six/getting_into_the_jam_tab.html ]
e]------
B]------
G]------
D]--9-9-
A]--9-9-
E]--7-7-

Lead

G]--9s10-9s10-9s10~~-

Chorus

e]---------------------
B]---------------------
G]---------------------
D]--9-9-9-9-9-5-5-5-7--
A]--9-9-9-9-9-5-5-5-7--
E]--7-7-7-7-7-3-3-3-5--

After the second chorus onwards:

Rhythm

D]-14-
A]-14-
E]-12-

Lead

D]--12h14--12h14--12h14~~--

Told u, simple. Please rate.
Peace Out 
Abe
Comments