Electric Six - Gay Bar Chords & Tabs

 

Gay Bar Chords & Tabs

Electric Six Chords & Tabs

Version: 1 Type: Bass Tab 0 ratings
1 star 2 stars 3 stars 4 stars 5 stars
comments

Gay Bar Bass Tab

Artist: Electric six
Title: Gay bar
Satndard tuning
BY Liam Lidbetter (lovelyliam@msn.com)




Intro (comes in with drums)
G|--------------------------------------------------------------------
D|--------------------------------------------------------------------
A|---15-15-15-15-15-15-15-15-15-15-15-15-15-15-15-15------------------
E|--------------------------------------------------------------------



Verse (x4)
G|--------------------------------------------------------------------
D|--------------------------------------------------------------------
A|---5----------------3--0--4--3--0-----------------------------------
E|--------3--3--4--5--------------------------------------------------

[ Tab from: http://www.guitartabs.cc/tabs/e/electric_six/gay_bar_btab.html ]
Thing after verse (x4)
G|--------------------------------------------------------------------
D|--------------------------------------------------------------------
A|--------------------------------------------------------------------
E|--10-10-10-10-10-10-10-10-8-8-8-8-8-8-8-8---------------------------


Then he does it again after that (x4)
G|--------------------------------------------------------------------
D|--------------------------------------------------------------------
A|--------------------------------------------------------------------
E|--10-10-10-10-10-10-10-10-8-8-8-8-8-8-8-8---------------------------

The song:
Intro
Verse
Thing after verse
Thing after verse
Verse
Big Pause
Intro  
Verse
Thing after verse
Thing after verse
End on D

I know you cant hear the bass that well but if you listen carefully
you can.

Trust me it's right.
Comments