Electric Six - Danger High Voltage Chords & Tabs

 

Danger High Voltage Chords & Tabs

Electric Six Chords & Tabs

Version: 1 Type: Tab 0 ratings
1 star 2 stars 3 stars 4 stars 5 stars
comments

Danger High Voltage Tab

   
Artist: Electric 6
Track: Danger High Voltage !
Tuning: Standard Tuning (EADGBE)
Tabbed By: Phreez (deep_phreez@yahoo.com)

Heard this one on MTV2 and thought thats catchy, so i went to learn it and it wasnt there (sigh) so i thought id add to the
good of mankind and tab this one..... enjoy

This aint all done but ill finish it off when i get time :D

Key
----
p: pull off
b: bend
~: ring (vibrato)
/: slide
t: tap


e|--------------------|
B|--------------------|
G|--10/7------10/7----| x14
D|------9-9-------9-9-|
A|--------------------|
E|--------------------|

e|------------------|
B|------------------|
G|--4~/-7~/-9~/-4---| x2
D|--4~/-7~/-9~/-4---|
A|--2~/-5~/-7~/-2---|
E|------------------|

e|--------------------|-------------------------------------------------|
B|--------------------|-----------------10------------------------------|
G|--10/7--(times 3)---|10/7---7-9p7--7-9---10/7----7t9p7t9p7t9p7t9r7t9~-| x2
D|------9-9-----------|----9-9-----9-----------9-9----------------------|
A|--------------------|-------------------------------------------------|
E|--------------------|-------------------------------------------------|

e|------------------|
B|------------------|
G|--4~/-7~/-9~/-4---| x2
D|--4~/-7~/-9~/-4---|
A|--2~/-5~/-7~/-2---|
E|------------------|

GUiTAR SOLO
------------
[ Tab from: http://www.guitartabs.cc/tabs/e/electric_six/danger_high_voltage_tab.html ]
e|--------------------------------------------------------------------------------------------------------------------------|
B|-----------------------------10--10------10--10--12-10-12-12-12~---12-15-12-15--12-15b17-15b17-12-12--12-15-12-12-12-12-12|
G|--9b11/7-----7-7-7~--7-9-9/11--11--11~-11--11--11----------------14-----------14--------------------14--------------------|
D|--------9-7-9-9-9---9-----------------------------------------------------------------------------------------------------|
A|--------------------------------------------------------------------------------------------------------------------------|
E|--------------------------------------------------------------------------------------------------------------------------|

e|--------------------------------------------------------------------------------------------------------------------------|
B|--12--12-15-12-15-15-15~-15-17-15-17b18-17b18-17b18-17b19-17-15---------15-12~------15--15--15--17b19-17-15---------------|
G|----14---------------------------------------------------------16--14-16-------14-16--16--16--16-----------16-------------|
D|--------------------------------------------------------------------------------------------------------------------------|
A|--------------------------------------------------------------------------------------------------------------------------|
E|--------------------------------------------------------------------------------------------------------------------------|

e|--------------------------------------------------------------------------------------------------------------------------|
B|--10h12p10------10--10~--10-----------------------------------------------------------------------------------------------|
G|----------11-11---11-------11-9-7-9---------------------------------------------------------------------------------------|
D|-----------------------------------9--------------------------------------------------------------------------------------|
A|--------------------------------------------------------------------------------------------------------------------------|
E|--------------------------------------------------------------------------------------------------------------------------|



Comments