Electric Light Orchestra - Mr Blue Sky Chords & Tabs

 

Mr Blue Sky Chords & Tabs

Electric Light Orchestra Chords & Tabs

Version: 2 Type: Tab 0 ratings
1 star 2 stars 3 stars 4 stars 5 stars
comments

Mr Blue Sky Tab

   
 F
Sun is shinin' in the sky,
               Em7  A   Dm
There ain't a cloud in sight
               G
It's stopped rainin'
      Em          A
Everybody's in a play
               Bb
And don't you know
                      F        Bb
It's a beautiful new day, hey hey


 F
Runnin' down the avenue,
                   Em7  A   Dm
See how the sun shines brightly
                    G
In the city on the streets
               Bb
Where once was pity,
                      F        Bb
Mr. Blue Sky is living here today.


CHORUS
Dm        F                  Bb
Mr. Blue Sky, please tell us why,
            F
You had to hide away
    G      F               E          Bb
For so long       where did we go wrong.

Solo (1:16)
[ Tab from: http://www.guitartabs.cc/tabs/e/electric_light_orchestra/mr_blue_sky_tab_ver_2.html ]
e|---------------------------------------------------------------------|
B|--------10h11-10b----10-------10-15-13-----10b-10b----------------10-|
G|--10h12-----------------12-10-----------10---------12-10-----9h10----|
D|---------------------------------------------------------------------|
A|---------------------------------------------------------------------|
E|---------------------------------------------------------------------|


e|----------------------------------------------------------13-12-10-8-|
B|---------------------------------------------------------------------|
G|--9h10--12-10-12-10-12-14-12-14-10---10-12-14-15-14-12-14------------|
D|---------------------------------------------------------------------|
A|---------------------------------------------------------------------|
E|---------------------------------------------------------------------|


Hey there Mr. Blue
We're so pleased to be with you
Look around see what you do,
Everybody smiles at you.

Hey you with the pretty face,
Welcome to the human race
A celebration Mr. Blue Sky's
Up there waitin' and today
Is the day we've waited for

CHORUS

 F          
Mr. Blue you did it right,
               Em7   A    Dm
But soon comes Mis - ter Night,
          G
Creepin' over, now his
 Em                A
Hand is on your shoulder,
       Bb                     Db
Never mind I'll remember you this 
        Eb              Dm
I'll remember you this way.
Comments