Electric Light Orchestra - Do Ya Chords & Tabs

 

Do Ya Chords & Tabs

Electric Light Orchestra Chords & Tabs

Version: 4 Type: Tab 0 ratings
1 star 2 stars 3 stars 4 stars 5 stars
comments

Do Ya Tab

By AUstin L.

Intro
-----------------------|
-----------------------|
--7--------------------|
--7--7--7--5-----------|
--5--7--7--5-----------|
-----5--5--3-----------|

-----------------------|
-----------------------|
-----------------------|
-5---------------------|
-5-x20 or so-----------|
-3---------------------|
PM

Verse:

------------------------------------|
------------------------------------|
-----7------------------------------|
---7---7-----7--------5-------7-----|  x6
-5---------7---7----5---5---7---7---|
---------5--------3-------5---------|

-------------------------|
-------------------------|
----------------7--------|
-5--------------7-7-5----|
-5-x20 or so----5-7-5-x--|3 kinda fast
-3----------------5-3----|
PM

Chorus

------------------------------------|
------------------------------------|
-----7------------------------------|
---7---7-----7--------5-------7-----|  x6
-5---------7---7----5---5---7---7---|
---------5--------3-------5---------|


 Verse2:

------------------------------------|
------------------------------------|
-----7------------------------------|
---7---7-----7--------5-------7-----|  x6
-5---------7---7----5---5---7---7---|
---------5--------3-------5---------|

-------------------------|
-------------------------|
----------------7--------|
-5--------------7-7-5----|
-5-x20 or so----5-7-5-x--|3 kinda fast
-3----------------5-3----|

The Little riff that goes in verse 2
[ Tab from: http://www.guitartabs.cc/tabs/e/electric_light_orchestra/do_ya_tab_ver_4.html ]
------------------------|
-14b15-14--12b13-12-14--|
------------------------|
------------------------| X however many times
------------------------|
------------------------|

Bridge:
----------------------------------|
----------------------------------|
-----7----------------------------|
---7---7-----7--------5-------7---|
-5---------7---7----5---5---7---7-|
---------5--------3-------5-------|

IM not sure the middle of the bridge


-----------------------|
-----------------------|
--7--------------------|
--7--7--7--5-----------| X3
--5--7--7--5-----------|
-----5--5--3-----------|

-------------------------|
-------------------------|
----------------7--------|
-5--------------7-7-5----|
-5-x20 or so----5-7-5-x--|3 kinda fast
-3----------------5-3----|


Chorus

------------------------------------|
------------------------------------|
-----7------------------------------|
---7---7-----7--------5-------7-----|  x6
-5---------7---7----5---5---7---7---|
---------5--------3-------5---------|


 Verse3:

------------------------------------|
------------------------------------|
-----7------------------------------|
---7---7-----7--------5-------7-----|  x6
-5---------7---7----5---5---7---7---|
---------5--------3-------5---------|

-------------------------|
-------------------------|
----------------7--------|
-5--------------7-7-5----|
-5-x20 or so----5-7-5-x--|3 kinda fast
-3----------------5-3----|

The Little riff that goes in verse 3

------------------------|
-14b15-14--12b13-12-14--|
------------------------|
------------------------| X however many times
------------------------|
------------------------|
Comments