Electric Light Orchestra - Do Ya Chords & Tabs

 

Do Ya Chords & Tabs

Electric Light Orchestra Chords & Tabs

Version: 3 Type: Tab 0 ratings
1 star 2 stars 3 stars 4 stars 5 stars
comments

Do Ya Tab

These are power chords not open or bar. try this out for you ELO experience with DO YA> 
[ Tab from: http://www.guitartabs.cc/tabs/e/electric_light_orchestra/do_ya_tab_ver_3.html ]
E---------------------------------|--------------------------------|
B---------------------------------|--------------------------------|
G---7-----------------------------|---7----------------------------|
D---5---------7-7---------5-------|---5---------7-7---------5------|
A---5---------5-5---------3-------|---5---------5-5---------3------|
E-------------5-5---------3-------|-------------5-5---------3------|X2

E---------------------------------|--------------------------------|
B---------------------------------|--------------------------------|
G---7-7---------------------------|---7-7--------------------------|
D---5-5-------7-7----5-5-----7-7--|---5-5-------7-7----5-5----7-7--|
A---5-5-------5-5----3-3-----5-5--|---5-5-------5-5----3-3----5-5--|
E-------------5-5----3-3-----5-5--|-------------5-5----3-3----5-5--|X4

Listen to song for rythem. listen for pick slides.  repeat through out song. 
enjoy.
Comments