Electric Frankenstein - Its All Moving Faster Chords & Tabs

 

Its All Moving Faster Chords & Tabs

Electric Frankenstein Chords & Tabs

Version: 1 Type: Bass Tab 0 ratings
1 star 2 stars 3 stars 4 stars 5 stars
comments

Its All Moving Faster Bass Tab

   
Tabber : Tcherno [tcherno0@hotmail.com]
This tab is not a copy, it just show you how I play this song. If you want a better 
make it by yourself ;)

Verse :
G------------------|
D------------------|
A-33333333---5--5--|
E---------444-55-5-|

Chorus A :
G--0----53-------------|
D-3-31-3--53-----------|
A-----3-------33333333-|
E-----------46---------|
[ Tab from: http://www.guitartabs.cc/tabs/e/electric_frankenstein/its_all_moving_faster_btab.html ]
Chorus B :
G------------------------|
D------------------------|
A---------------------66-|
E-3-1-4444444443-1-444---|

Chorus-end :
G--------------|
D--------------|
A-----33333333-|
E-4-6----------|

End :
G-------|
D-------|
A-----3-|
E-4-6---|

Play this order :
-12x Verse
-02x Chorus A
-08x Verse
-04x Chorus A
-04x Chorus B
-08x Verse
-04x Chorus A
-07x Chorus-end
-01x End
Comments