Electric 6 - Danger High Voltage Chords & Tabs

 

Danger High Voltage Chords & Tabs

Electric 6 Chords & Tabs

Version: 1 Type: Bass Tab 1 rating
1 star 2 stars 3 stars 4 stars 5 stars
comments

Danger High Voltage Bass Tab

Danger high voltage!!!!
Electric 6

Very cool song with a sweet bass line.


Start with this. slap on E and A string then pop 
on the D and G string.
[ Tab from: http://www.guitartabs.cc/tabs/e/electric_6/danger_high_voltage_btab.html ]
G------------7-7-7-7--9-9-9-9--------------
D---9-9-9-9---------------------9-9--6--7--
A-----------5-5-5-5--7-7-7-7---------------
E--7-7-7-7--------------------7-7--4--5----

This is later on in the song its pretty hard!
once again slap and pop.

G------------7---7----9---9----------------
D---9---9----------------------9-----6--7--
A-----------5-2-5-5--7-5-7-5---------------
E--7-5-7-5--------------------7--7--4--5---

THATS IT REALLY HOPE U ENJOY
MAtt DIXON Gumibear
Comments