Electrasy - Morning Afterglow Chords & Tabs

 

Morning Afterglow Chords & Tabs

Electrasy Chords & Tabs

Version: 1 Type: Tab 0 ratings
1 star 2 stars 3 stars 4 stars 5 stars
comments

Morning Afterglow Tab

   
Electracy - Morning Afterglow

Tabbed by jenn s - no_come_down@yahoo.com
as always, let me know of any glitches!

   c#m    B    f#m  A    G   bmin  E     E 12th fret  D maj  Dmaj 10th fret
E    4    7 	2   5    3    7    0     12  	      2       10
B    5    7     2   5    3    7	   0     12	      3       10
G    6    8/9   2   6    0    7    1     13	      2       11
D    6    9     4   7    0    9    2     14  	      0       12
A    4    9	4   7    2    9    2     14  	      0       12
E    4    7	2   5    1    7    0     12           0       10

Intro:
c#m	       B		f#m            A
--4-4--4-4-----7---7-7----7-----2---2---2-2----5-5---5-5----|
--5-5--5-5-----7---7-7----7-----2---2---2-2----5-5---5-5----|
--6-6--6-6-----9---8-8----8-----2---2---2-2----6-6---6-6----|
--6-6--6-6-----9---9-9----9-----4---4---4-4----7-7---7-7----|
--4-4--4-4-----9---9-9----9-----4---4---4-4----7-7---7-7----|
--4-4--4-4-----7---7-7----7-----2---2---2-2----5-5---5-5----|

c#m	        B		f#m
--4-4---4-4-----7---7-7----7-----2----------|
--5-5---5-5-----7---7-7----7-----2----------|
--6-6---6-6-----9---8-8----8-----2----------|
--6-6---6-6-----9---9-9----9-----4----------|
--4-4---4-4-----9---9-9----9-----4----------|
--4-4---4-4-----7---7-7----7-----2----------|

Verse:

c#m	      B	             f#m  	     A
-4--4-4---4---7---7-7---7-----2---2---2-2----5-5---5-5-----|
-5--5-5---5---7---7-7---7-----2---2---2-2----5-5---5-5-----|
-6--6-6---6---9---8-8---8-----2---2---2-2----6-6---6-6-----|
-6--6-6---6---9---9-9---9-----4---4---4-4----7-7---7-7-----|
-4--4-4---4---9---9-9---9-----4---4---4-4----7-7---7-7-----|
-4--4-4---4---7---7-7---7-----2---2---2-2----5-5---5-5-----|

[ Tab from: http://www.guitartabs.cc/tabs/e/electrasy/morning_afterglow_tab.html ]
Chorus:
 E             	B	     	 f#m			A
-0---0--0---0---7---7-7---7-----2---2---2-2--------5-5---5-5---|
-0---0--0---0---7---7-7---7-----2---2---2-2--------5-5---5-5---|
-1---1--1---1---9---8-8---8-----2---2---2-2--------6-6---6-6---|
-2---2--2---2---9---9-9---9-----4---4---4-4--------7-7---7-7---|
-2---2--2---2---9---9-9---9-----4---4---4-4--------7-7---7-7---|
-0---0--0---2---7---7-7---7-----2---2---2-2--------5-5---5-5---|

Verse again
Chorus again

Interlude

  A            G        3x    E       do full line 2x
--0-0---0-0----3-3-3---3-----12--12--12--12--12--12--12--12--|
--3-3---3-3----3-3-3---3-----12--12--12--12--12--12--12--12--|
--3-3---3-3----0-0-0---0-----13--13--13--13--13--13--13--13--|
--3-3---3-3----0-0-0---0-----14--14--14--14--14--14--14--14--|
--0-0---0-0----2-2-2---2-----14--14--14--14--14--14--14--14--|
--0-0---0-0----1-1-1---1-----12--12--12--12--12--12--12--12--|

Chorus 2 (new key)

 A            E	     	       bmin        D
-5--5--5-5---12---12-12--12--7---7---7-7---10-10---10-10--|
-5--5--5-5---12---12-12--12--7---7---7-7---10-10---10-10--|
-6--6--6-6---14---13-13--13--7---7---7-7---11-11---11-11--|
-7--7--7-7---14---14-14--14--9---9---9-9---12-12---12-12--|
-7--7--7-7---14---14-14--14--9---9---9-9---12-12---12-12--|
-5--5--5-5---12---12-12--12--7---7---9-9---10-12---10-10--|


Outro: 4x
A            E	     	      bmin         D
-5-5--5--5---12---12-12--12---7--7---7-7---10-10---10-10--|
-5-5--5--5---12---12-12--12---7--7---7-7---10-10---10-10--|
-6-6--6--6---14---13-13--13---7--7---7-7---11-11---11-11--|
-7-7--7--7---14---14-14--14---9--9---9-9---12-12---12-12--|
-7-7--7--7---14---14-14--14---9--9---9-9---12-12---12-12--|
-5-5--5--5---12---12-12--12---7--7---9-9---10-10---10-10--|

after 4th outro
bmin       D	        A	     E      D
-7--7-----10---10-10----5----5---5---0-0----2--|
-7--7-----10---10-10----5----5---5---0-0----3--|
-7--7-----11---11-11----6----6---6---1-1----2--|
-9--9-----12---12-12----7----7---7---2-2----0--|
-9--9-----12---12-12----7----7---7---2-2----0--|
-7--7-----10---10-10----5----7---7---0-0----0--|
Comments