Elbow - Grounds For Divorce Chords & Tabs

 

Grounds For Divorce Chords & Tabs

Elbow Chords & Tabs

Version: 1 Type: Bass Tab 0 ratings
1 star 2 stars 3 stars 4 stars 5 stars
comments

Grounds For Divorce Bass Tab

   
----------------------------------------------------------------------------
		      GROUNDS FOR DIVORCE - Elbow
----------------------------------------------------------------------------

Tabbed By : Matthew Barron
e-mail: mattybarron@yahoo.co.uk

Tuning: Standard

Apologies but I could only get the bit after "There's a hole..."

1st Chorus:-

G|----------------|------------------|-----------------|-----------------|
D|----------------|------------------|-----------------|-----------------|
A|-------------5~-|-------------5-3~-|--------------5~-|-------------5-3~|
E|--5^v--3-0------|--5^v--3-0--------|--5^v---3-0------|--5^v--3-0-------|
 (bend up then down)
G|--------------------|------------------|
D|--------------------|------------------|
A|-------------5-8-5~-|-------------5-3~-|
E|--5^v--3-0----------|--5^v--3-0--------|
[ Tab from: http://www.guitartabs.cc/tabs/e/elbow/grounds_for_divorce_btab.html ]
After Chorus:-

G|-----------------------------------|
D|--12-12-12-12-12-12-12-12-12\\\\0--|
A|-----------------------------------|
E|-----------------------------------|

2nd Chorus

G|----------------|------------------|-----------------|-----------------|
D|----------------|------------------|-----------------|-----------------|
A|-------------5~-|-------------5-3~-|--------------5~-|-------------5-3~|
E|--5^v--3-0------|--5^v--3-0--------|--5^v---3-0------|--5^v--3-0-------|

G|--------------------|------------------|
D|--------------------|------------------|
A|-------------5-8-5~-|-------------5-3~-| x2
E|--5^v--3-0----------|--5^v--3-0--------|


| /  slide up
| \  slide down
| h  hammer-on
| p  pull-off
| ~  vibrato
| +  harmonic
| x  Mute note
===============================================================================
Comments