Elbow - George Lassos The Moon Chords & Tabs

 

George Lassos The Moon Chords & Tabs

Elbow Chords & Tabs

Version: 1 Type: Tab 0 ratings
1 star 2 stars 3 stars 4 stars 5 stars
comments

George Lassos The Moon Tab

   
-------------------------------------------------------------------------------
			    George Lassos The Moon
-------------------------------------------------------------------------------

Artist: ELBOW

Album: The Noise-box EP/Any day Now EP

Transcribed by Ben Huhndorf


Tuning: E A D G B E (Standard)


Another Very underrated song. Quite minimal on guitar though, but that serves the song well.
One point to note though, the chorus is made up of 16th notes strummed indefinitely 
until the diads at the last repeat.
Best to listen to the song to figure out the duration of the strumming.
Also, the version tabbed hear is the Any day Now EP version which has a slightly more 
varied Guitar parts  (e.g. the bridge & the outro) but other than that, they're pretty 
much the same.



INTRO

|-----0-----------0-----------0-----------0-----------0-----------0-----------0-----------0------|
|---3---3-------3---3-------3---3-------3---3-------3---3-------3---3-------3---3-------3---3----|
|-4-------4-2-4-------4-2-4-------4-2-4-------4-2-4-------4-2-4-------4-2-4-------4-2-4-------4-2|
|------------------------------------------------------------------------------------------------|
|------------------------------------------------------------------------------------------------|
|------------------------------------------------------------------------------------------------|
|
|-----0-----0-----0-----0----|
|---3---3-----3-----3-----3--|
|-4-------4-----4-----4------|
|----------------------------|
|----------------------------|
|----------------------------|

*synth break*

CHORUS

|--------------------------------------------------------------------------------------------|
|--------------------------------------------------------------------------------------------|
|--------------------------------------------------------9----9----9----9----9----9----9----9|
|-9-9-9-9-9-9-9-9-9-9-9-9-9-9-9-9-9-9-9-9-9-9-9-9-9-9/11---11---11---11---11---11---11---11--|(x2)
|--------------------------------------------------------------------------------------------|
|--------------------------------------------------------------------------------------------|


*No Guitar in verse*


CHORUS

|--------------------------------------------------------------------------------------------|
|--------------------------------------------------------------------------------------------|
|--------------------------------------------------------9----9----9----9----9----9----9----9|
|-9-9-9-9-9-9-9-9-9-9-9-9-9-9-9-9-9-9-9-9-9-9-9-9-9-9/11---11---11---11---11---11---11---11--|(x2)
|--------------------------------------------------------------------------------------------|
|--------------------------------------------------------------------------------------------|


BRIDGE - w/delay

|-----------------------------------------------------|
|-12-12-12-12-12\10-10-10-10-------------10-10-10-10/-|
|-X--X--X--X--X--X--X--X--X--12-12-12-12-X--X--X--X---|
|-9--9--9--9--9--9--9--9--9--9--9--9--9--9--9--9--9---| (x5)
|-----------------------------------------------------|
|-----------------------------------------------------|
[ Tab from: http://www.guitartabs.cc/tabs/e/elbow/george_lassos_the_moon_tab.html ]
|--------------------------------------------------------------------------------------------|
|-12-12-12-12-12\10-10-10-10-------------10-10-10-10/----------------------------------------|
|-X--X--X--X--X--X--X--X--X--12-12-12-12-X--X--X--X-----9----9----9----9----9----9----9----9-|
|-9--9--9--9--9--9--9--9--9--9--9--9--9--9--9--9--9--11---11---11---11---11---11---11---11---|
|--------------------------------------------------------------------------------------------|
|--------------------------------------------------------------------------------------------|


FINAL CHORUS

|-----------------------------------------------------|
|-12-12-12-12-12-12-12-12-12-12-12-12-12-12-12-12-12--|
|-X--X--X--X--X--X--X--X--X--X--X--X--X--X--X--X--X---|
|-9--9--9--9--9--9--9--9--9--9--9--9--9--9--9--9--9---| (x5)
|-----------------------------------------------------|
|-----------------------------------------------------|

|--------------------------------------------------------------------------------------------|
|-12-12-12-12-12-12-12-12-12-12-12-12-12-12-12-12-12-----------------------------------------|
|-X--X--X--X--X--X--X--X--X--X--X--X--X--X--X--X--X-----9----9----9----9----9----9----9----9-|
|-9--9--9--9--9--9--9--9--9--9--9--9--9--9--9--9--9--11---11---11---11---11---11---11---11---|
|--------------------------------------------------------------------------------------------|
|--------------------------------------------------------------------------------------------|


OUTRO - w/delay and feedback

|------------------------------------------------------------------------|
|------(7~)---------------------------------------------------(7~)-------|
|--------------------------------------------------------7---------------|
|----11\7~--------7/11~-------11\7~--------7/11~-----7------7~-----7/11~-|
|------------------------------------------------------------------------|
|------------------------------------------------------------------------|

------------------------------------------------------|
----------------------------------(7~)----------------|
------------------------------7-----------------------|
-----11\7~------7/11------7------7~-------------------|
------------------------------------------------------|
------------------------------------------------------|

|--------------------------------------------------------|
|--------------------------------------------(7~)--------|
|----------------------------------------7---------------|
|-7/11~-------11\7~--------7/11~-----7------7~-----7/11~-|
|--------------------------------------------------------|
|--------------------------------------------------------|

-----------------------------------------------------|
---------------------------------(7~)----------------|
-----------------------------7-----------------------|
----11\7~------7/11------7------7--------------------|
-----------------------------------------------------|
-----------------------------------------------------|

| /  slide up
| \  slide down
| h  hammer-on
| p  pull-off
| ~  vibrato
| *  harmonic
| x  Mute note
| b  bend note

===============================================================================
Comments