Elbow - Fugitive Motel Chords & Tabs

 

Fugitive Motel Chords & Tabs

Elbow Chords & Tabs

Version: 1 Type: Tab 0 ratings
1 star 2 stars 3 stars 4 stars 5 stars
comments

Fugitive Motel Tab

   
Band: Elbow
Song: Fugitive Motel
Album:Cast of Thousands

This song also features on the Jools Holland Cool Britannia DVD, and its
good if you want the bass part

This song is in 6/8 time.

The symbol | represents approx. bar lines.

Chords used:
   E  Em  Am  C  Asus2 Bm
e:-0--0---0---0---0-----2-----------------------------------------------|
B:-0--0---1---1---0-----3-----------------------------------------------|
G:-1--0---2---0---2-----4-----------------------------------------------|
D:-2--2---2---2---2-----4-----------------------------------------------|
A:-2--2---0---3---0-----2-----------------------------------------------|
E:-0--0-----------------------------------------------------------------|

Intro:

Guit1 (chords):
  E                         Am
Guit2 (lead):
e:------------|------------|------------------------------------------|
B:------------|------------|------------------------------------------|
G:------------|------------|------------------------------------------|
D:------5p3---|--5p3-0h2---|------------------------------------------|
A:------------|------------|0-----------------------------------------|
E:0-----------|(0)---------|------------------------------------------|

  E                         Am                         Em
e:------------|------------|------------|-------------|---------------|
B:------------|------------|------------|-------------|---------------|
G:------------|------------|------------|-------------|---------------|
D:------5p3---|--5p3-0h2---|------------|-------------|---------------|
A:------------|------------|0----0------|0----0----0--|---------------|
E:0-----------|(0)---------|------------|-------------|3--------------|
                                                      (Lost in a lullaby...)

I'm not sure if these chords are 100% accurate as the guitar is quite quiet,
but its goo enough.

Em
Lost in a lullaby
Am
Side of the road
Em
Melt in a memory
Am
Slide into solitude
C
Not till I can read by the moon
Em
I'm not going anywhere
         C                   Bm
Not till I can read by the moon
[ Tab from: http://www.guitartabs.cc/tabs/e/elbow/fugitive_motel_tab.html ]
Guit1:
  |E         |           |Am         |Asus2         |E          |
Strings arr. guitar:
e:----------------------------------------------------------------------|
B:-9--\5----------9--\5-/10-------10\--5------5--7---9--\5--------------|
G:----------------------------------------------------------------------|
D:----------------------------------------------------------------------|
A:----------------------------------------------------------------------|
E:----------------------------------------------------------------------|
      Blow...           ...tommorrow        as it flies

      |C            |
e:----------------------------------------------------------------------|
B:--9-\8------------7--------5------------------------------------------|
G:----------------------------------------------------------------------|
D:----------------------------------------------------------------------|
A:----------------------------------------------------------------------|
E:----------------------------------------------------------------------|
other side of the world

  |E         |           |Am         |Asus2         |E          |
e:----------------------------------------------------------------------|
B:-9--\5----------9--\5-/10-------10\--5------5--7---9--\5--------------|
G:----------------------------------------------------------------------|
D:----------------------------------------------------------------------|
A:----------------------------------------------------------------------|
E:----------------------------------------------------------------------|
  From my room...        ...dust bowl        as it flies

      |C            |
e:----------------------------------------------------------------------|
B:--9-\8------------7--------5------------------------------------------|
G:----------------------------------------------------------------------|
D:----------------------------------------------------------------------|
A:----------------------------------------------------------------------|
E:----------------------------------------------------------------------|
other side of the world

Second verse uses the same chords.

Second chorus the same.

C
The curtains stay closed but everyone knows
Em
You hear through the walls in this place
C
Cigarette holes for every lost soul
Am
To give up the ghost in this place
C
Give me strength
Em
Give me hope
C
Give me strength
Bm
Give me hope

Chorus.

Outro:
  E          Am         E         Am      (End on Em)

Guit2 plays something like...
e:----------------------------------------------------------------------|
B:----------------------------------------------------------------------|
G:----------------------------------------------------------------------|
D:----------------------------------------------------------------------|
A:----------------------------------------------------------------------|
E:-5--5--5--5--3h5--5--5--5--3h5--5--5-5--0-----------------------------|

All my own work.

Please send emails marvelling at my excellence to
carswellium@hotmail.com

Stew C.
Comments