Elbow - Friend Of Ours Chords & Tabs

 

Friend Of Ours Chords & Tabs

Elbow Chords & Tabs

Version: 1 Type: Bass Tab 0 ratings
1 star 2 stars 3 stars 4 stars 5 stars
comments

Friend Of Ours Bass Tab

Elbow
Friend Of Ours Bass Tab
Seldom Seen Kid (2008)
Standard Tuning EADG

Intro/Verse: (Bass comes in at 0:09)
  VERSE>>	                    INTRO>>
G|-------------|-------------|-------------|-------------|
D|-------------|-------------|-------------|-------------|
A|-------------|-------------|-------------|-------------|
E|-0-0-0-0-0-0-|-7-7-7-7-7-7-|-0-0-0-0-0-0-|-0-0-0-0-0-0-|

G|-------------|-------------------|-------------|-------------|
D|-------------|-------------------|-------------|-------------|
A|-------------|-------------------|-------------|-------------|
E|-8-8-8-8-8-8-|/10-10-10-10-10-10\|-3-3-3-3-3-3-|-3-3-3-2-2-2-|

G|-------------|-------------|-------------|-------------|
D|-------------|-------------|-------------|-------------|
A|-------------|-------------|-------------|-------------|
E|-0-0-0-0-0-0-|-7-7-7-7-7-7-|-0-0-0-0-0-0-|-8-8-8-8-8-8-|

G|-------------|-------------------|-------------|-------------|
D|-------------|-------------------|-------------|-------------|
A|-------------|-------------------|-------------|-------------|
E|-8-8-8-8-8-8-|/10-10-10-10-10-10\|-3-3-3-3-3-3-|-3-3-3-2-2-2-|


Chorus: (You can also play this an octave down on the E string)
[ Tab from: http://www.guitartabs.cc/tabs/e/elbow/friend_of_ours_btab.html ]
G|-------------|-----------------|-------------|-------------|
D|-------------|-9-10-12-10-9-7~-|-------------|-------------|
A|-------------|-----------------|-------------|-------------|
E|-0-0-0-0-0-0-|-----------------|-------------|-------------| x2

Verse x1
Chorus x2

Bridge: (Again, can be played an octave down on the E string)
G|-------------|---------------|
D|-5~----5~----|-5~------12~---|
A|-------------|---------------|
E|-------------|---------------| x7

G|-------------|---------------|-------------|-------------|
D|-5~-----5~---|-5~------5~----|-7~----------|-------------|
A|-------------|---------------|-------------|-------------|
E|-------------|---------------|-------------|-------------|

Outro: (4th time finish on -3-)
G|-------------|-------------|-------------|-------------|
D|-------------|-------------|-------------|-------------|
A|-------------|-------------|-------------|-------------|
E|-0-0-0-0-0-0-|-7-7-7-7-7-7-|-0-0-0-0-0-0-|-0-0-0-0-0-0-|

G|-------------|-------------------|-------------|-------------|
D|-------------|-------------------|-------------|-------------|
A|-------------|-------------------|-------------|-------------|
E|-8-8-8-8-8-8-|/10-10-10-10-10-10\|-3-3-3-3-3-3-|-3-3-3-2-2-2-| x4

And there you go, have fun with this masterpiece of a song!

/ = Slide up
\ = Slide down
~ = Held note
Comments