Elastica - Stutter Chords & Tabs

 

Stutter Chords & Tabs

Elastica Chords & Tabs

Version: 2 Type: Bass Tab 0 ratings
1 star 2 stars 3 stars 4 stars 5 stars
comments

Stutter Bass Tab

   
Track: Stutter
Band: Elastica
Album: Elastica (1995)
Tabber: The Indie Fish indie_fish@hotmail.com

i've just figured this one out. it's pretty easy but Annie plays it very 
quickly, listen to record etc

Riff 1

G|--------------------------------------------------------------------
D|--------------------------------------------------------------------
A|----------------4-4-4-4-4-4-4-4-----------------2-2-2-2-2-2-2-2-----
E|2-2-2-2-2-2-2-2-----------------0-0-0-0-0-0-0-0---------------------

Riff 2

G|-------------------------------
D|-------------------------------
A|4-4-4-4-4-4-4-4-4-4-4-4-4-4-4-4
E|-------------------------------

Riff 3
[ Tab from: http://www.guitartabs.cc/tabs/e/elastica/stutter_btab_ver_2.html ]
G|--------------------------------
D|--------------------------------
A|5-5-5-5-5-5-5-5-----------------
E|----------------2-2-2-2-2-2-2-2-

Riff 4

G|------------------------------------------------
D|------------------------------------------------
A|5-5-5-5-5-5-5-5-2-2-2-2-2-2-2-2-----------------
E|--------------------------------2-2-2-2-2-2-2-2-

Riff 5

G|----------------------------------------
D|----------------------------------------
A|5-5-5-5-5-5-5-5-2-2-2-2-2-2-2-2---------
E|--------------------------------2*-2/14-           * let note ring

Guitar intro
Riff 1 x 6
Riff 2 x 1
Riff 1 x 3
Riff 3 x 1
Riff 1 x 5
Riff 2 x 1
Riff 1 x 3
Riff 4 x 2
Riff 5 x 1

sorted
Comments