Elastica - My Sex Chords & Tabs

 

My Sex Chords & Tabs

Elastica Chords & Tabs

Version: 1 Type: Bass Tab 0 ratings
1 star 2 stars 3 stars 4 stars 5 stars
comments

My Sex Bass Tab

Elastica - My Sex
Submitted By: Laura
EMail: bunternelson@hotmail.com

G|---------------------------------------------------------------------------|
D|---------------------------------------------------------------------------| 
A|-4-4--44-4--*4-4-(**44-4)--44-4--------------------------------------------|
E|---------------------------------------4-4--44-4--*4-4-(**44-4)--44-4------|
[ Tab from: http://www.guitartabs.cc/tabs/e/elastica/my_sex_btab.html ]
G|---------------------------------------------------------------------------|
D|---------------------------------------------------------------------------|
A|-2-2-22-2---*2-2-(**22-2)---22-2-------------------------------------------|
E|---------------------------------------2-2--22-2--*2-2-(**22-2)--22-2------|

Replace * with ** after a couple of times.  There's a lot of room for improvising, so go to it.
Enjoy!
Comments