El Cid - Killing Oklahoma Chords & Tabs

 

Killing Oklahoma Chords & Tabs

El Cid Chords & Tabs

Version: 1 Type: Tab 0 ratings
1 star 2 stars 3 stars 4 stars 5 stars
comments

Killing Oklahoma Tab

Song: Killing Oklahoma
Musician: el-Cid
Tabbed by Josh Rezek

This is an extremely easy but awesome song.  It’s one of those ones when you play it get’s caught in your brain for a long time.
 
Intro:
[ Tab from: http://www.guitartabs.cc/tabs/e/el_cid/killing_oklahoma_tab.html ]
E----------------------------------------------------------------------------------------------------------
B----------------------------------------------------------------------------------------------------------
G---------------------------------------------------------------------------------------------------------
D---------------------------------------------------------------------------------------------------------
A-  33 111 0-----33-111-0---------------------------------------------------------------------------------------
E-11---------  11-----------1---------------------------------------------------------------------------------
Do this intro four times before you start the chorus.

Chorus:

E---------------------------------------------------------------------
B---------------------------------------------------------------------
G---------------------------------------------------------------------
D-----5-5-3-3-3-3-----5-5-3-3-3-3------------------------------------------------
A-3-3-3-3-1-1-1-1-3-3-3-3-1-1-1-1--------------------------------------------------
E-1-1-------------1-1-------------------------------------------------
Repeat this seven times and then go back to intro. that's it pretty easy huh!
Comments