Ekoostik Hookah - Bone Chords & Tabs

 

Bone Chords & Tabs

Ekoostik Hookah Chords & Tabs

Version: 1 Type: Tab 0 ratings
1 star 2 stars 3 stars 4 stars 5 stars
comments

Bone Tab

   
----------------------------------------------------------------------------
			     Bone - Ekoostik Hookah (Ed Mcgee)
----------------------------------------------------------------------------
Tabbed by: Ryan Baker

Email: ohiogrown04@aol.com

Tuning: Standard

 Intro:
[ Tab from: http://www.guitartabs.cc/tabs/e/ekoostik_hookah/bone_tab.html ]
e|---------------------|
B|---------------------|
G|-------------------2-|
D|-------------------2-|  X 4
A|---------0h2p0-2s4---|
E|-2-2-0h2-------------|
 
 Verse:
     B    A   F#7
e|---2----0---2---------------------------|
B|---4----2---2---------------------------|
G|---4----2---3--------------2------------|
D|---4----2---2--------------2------------| Repeat X 3
A|-2-2----0---4----0h2p0-2/4--------------|
E|------------2---------------------------|
    
    B    A   F#7
e|--2----0---2----------------------------|
B|--4----2---2----------------------------|
G|--4----2---3----------------------------| End Verse
D|--4----2---2----------------------------|
A|2-2----0---4--0h2p0-2/4-3-2-1-0---------|
E|-----------2----------------------------|
 
 Begin Pre-Chorus
 
   A          B                    D
e|-0----------2--------------------5--------|
B|-2----------4--------------------7--------|
G|-2----------4--------------------7--------|
D|-2----------4--------------------7--------| Repeat X 4
A|-0----------2--------------------5--------|
E|------------------------------------------|
   But I know folks who ain't that way...
 
  Chorus:
   E      F#     A      B       E
e|--------2------5------7-------7-----------|
B|--------2------5------7-------9-----------|
G|-1------3------6------8-------9-----------|
D|-2------4------7------9-------9-----------| Repeat X 6
A|-2------4------7------9-------7-----------|
E|--------2------5------7-------------------|
  And I know people...


 That's pretty much it, just repeat.  You'll definately
 have to listen to the song for the rhythm.  Another 
 masterpiece from Mr. Ed Mcgee!  


| /  slide up
| \  slide down
| h  hammer-on
| p  pull-off
| ~  vibrato
| +  harmonic
| x  Mute note
============================================================================
Comments