Eisnhauer Bill - With Out You Intro Chords & Tabs

 

With Out You Intro Chords & Tabs

Eisnhauer Bill Chords & Tabs

Version: 1 Type: Tab 0 ratings
1 star 2 stars 3 stars 4 stars 5 stars
comments

With Out You Intro Tab

                         Without you
                   BY Bill Eisenhauer
[ Tab from: http://www.guitartabs.cc/tabs/e/eisnhauer_bill/with_out_you_intro_tab.html ]
   INTRO
e---------------------------------------------]
b---------------------------------------------]
g---0---0---0---0---0---0--4--4--4-2--4-2-----]
d--0-0-0-0-0-0-0-0-0-0-0-0--5--5--5-3---3-----]
a-3---3---2---2---1---1---3--5--5----3--3-----]
e---------------------------------------------]

    End
e-------------------------------3-]
b-------------------------------0-]
g---0---0---0---0---0---0---0---0-]
d--0-0-0-0-0-0-0-0-0-0-0-0-0-0--0-]
a-3---3---2---2---1---1---3---3-2-]
e-------------------------------3-]

Comments